  0
SECTION
  2
HEADER
  9
$ACADVER
  1
AC1012
  9
$DWGCODEPAGE
  3
dos932
  9
$INSBASE
 10
0.0
 20
0.0
 30
0.0
  9
$EXTMIN
 10
254.6111122957881
 20
245.4940473518297
 30
0.0
  9
$EXTMAX
 10
1408.964263718158
 20
1874.797874205842
 30
0.0
  9
$LIMMIN
 10
0.0
 20
0.0
  9
$LIMMAX
 10
420.0
 20
297.0
  9
$ORTHOMODE
 70
     0
  9
$REGENMODE
 70
     1
  9
$FILLMODE
 70
     1
  9
$QTEXTMODE
 70
     0
  9
$MIRRTEXT
 70
     1
  9
$DRAGMODE
 70
     2
  9
$LTSCALE
 40
1.0
  9
$OSMODE
 70
   127
  9
$ATTMODE
 70
     1
  9
$TEXTSIZE
 40
2.5
  9
$TRACEWID
 40
1.0
  9
$TEXTSTYLE
  7
STANDARD
  9
$CLAYER
  8
0
  9
$CELTYPE
  6
BYLAYER
  9
$CECOLOR
 62
   256
  9
$CELTSCALE
 40
1.0
  9
$DELOBJ
 70
     1
  9
$DISPSILH
 70
     0
  9
$DIMSCALE
 40
1.0
  9
$DIMASZ
 40
2.5
  9
$DIMEXO
 40
0.625
  9
$DIMDLI
 40
3.75
  9
$DIMRND
 40
0.0
  9
$DIMDLE
 40
0.0
  9
$DIMEXE
 40
1.25
  9
$DIMTP
 40
0.0
  9
$DIMTM
 40
0.0
  9
$DIMTXT
 40
2.5
  9
$DIMCEN
 40
2.5
  9
$DIMTSZ
 40
0.0
  9
$DIMTOL
 70
     0
  9
$DIMLIM
 70
     0
  9
$DIMTIH
 70
     0
  9
$DIMTOH
 70
     0
  9
$DIMSE1
 70
     0
  9
$DIMSE2
 70
     0
  9
$DIMTAD
 70
     1
  9
$DIMZIN
 70
     8
  9
$DIMBLK
  1

  9
$DIMASO
 70
     1
  9
$DIMSHO
 70
     1
  9
$DIMPOST
  1

  9
$DIMAPOST
  1

  9
$DIMALT
 70
     0
  9
$DIMALTD
 70
     3
  9
$DIMALTF
 40
0.03937007874016
  9
$DIMLFAC
 40
1.0
  9
$DIMTOFL
 70
     1
  9
$DIMTVP
 40
0.0
  9
$DIMTIX
 70
     0
  9
$DIMSOXD
 70
     0
  9
$DIMSAH
 70
     0
  9
$DIMBLK1
  1

  9
$DIMBLK2
  1

  9
$DIMSTYLE
  2
ISO-25
  9
$DIMCLRD
 70
     0
  9
$DIMCLRE
 70
     0
  9
$DIMCLRT
 70
     0
  9
$DIMTFAC
 40
1.0
  9
$DIMGAP
 40
0.625
  9
$DIMJUST
 70
     0
  9
$DIMSD1
 70
     0
  9
$DIMSD2
 70
     0
  9
$DIMTOLJ
 70
     0
  9
$DIMTZIN
 70
     8
  9
$DIMALTZ
 70
     0
  9
$DIMALTTZ
 70
     0
  9
$DIMFIT
 70
     3
  9
$DIMUPT
 70
     0
  9
$DIMUNIT
 70
     2
  9
$DIMDEC
 70
     2
  9
$DIMTDEC
 70
     2
  9
$DIMALTU
 70
     2
  9
$DIMALTTD
 70
     3
  9
$DIMTXSTY
  7
STANDARD
  9
$DIMAUNIT
 70
     0
  9
$LUNITS
 70
     2
  9
$LUPREC
 70
     4
  9
$SKETCHINC
 40
1.0
  9
$FILLETRAD
 40
10.0
  9
$AUNITS
 70
     0
  9
$AUPREC
 70
     0
  9
$MENU
  1
.
  9
$ELEVATION
 40
0.0
  9
$PELEVATION
 40
0.0
  9
$THICKNESS
 40
0.0
  9
$LIMCHECK
 70
     0
  9
$BLIPMODE
 70
     0
  9
$CHAMFERA
 40
10.0
  9
$CHAMFERB
 40
10.0
  9
$CHAMFERC
 40
20.0
  9
$CHAMFERD
 40
0.0
  9
$SKPOLY
 70
     0
  9
$TDCREATE
 40
2453042.936272777
  9
$TDUPDATE
 40
2453042.939398680
  9
$TDINDWG
 40
0.0003828472
  9
$TDUSRTIMER
 40
0.0003828472
  9
$USRTIMER
 70
     1
  9
$ANGBASE
 50
0.0
  9
$ANGDIR
 70
     0
  9
$PDMODE
 70
     0
  9
$PDSIZE
 40
0.0
  9
$PLINEWID
 40
0.0
  9
$COORDS
 70
     0
  9
$SPLFRAME
 70
     0
  9
$SPLINETYPE
 70
     6
  9
$SPLINESEGS
 70
     8
  9
$ATTDIA
 70
     0
  9
$ATTREQ
 70
     1
  9
$HANDLING
 70
 22529
  9
$HANDSEED
  5
8B4
  9
$SURFTAB1
 70
     6
  9
$SURFTAB2
 70
     6
  9
$SURFTYPE
 70
     6
  9
$SURFU
 70
     6
  9
$SURFV
 70
     6
  9
$UCSNAME
  2

  9
$UCSORG
 10
0.0
 20
0.0
 30
0.0
  9
$UCSXDIR
 10
1.0
 20
0.0
 30
0.0
  9
$UCSYDIR
 10
0.0
 20
1.0
 30
0.0
  9
$PUCSNAME
  2

  9
$PUCSORG
 10
0.0
 20
0.0
 30
0.0
  9
$PUCSXDIR
 10
1.0
 20
0.0
 30
0.0
  9
$PUCSYDIR
 10
0.0
 20
1.0
 30
0.0
  9
$USERI1
 70
     0
  9
$USERI2
 70
     0
  9
$USERI3
 70
     0
  9
$USERI4
 70
     0
  9
$USERI5
 70
     0
  9
$USERR1
 40
0.0
  9
$USERR2
 40
0.0
  9
$USERR3
 40
0.0
  9
$USERR4
 40
0.0
  9
$USERR5
 40
0.0
  9
$WORLDVIEW
 70
     1
  9
$SHADEDGE
 70
     3
  9
$SHADEDIF
 70
    70
  9
$TILEMODE
 70
     1
  9
$MAXACTVP
 70
    48
  9
$PINSBASE
 10
0.0
 20
0.0
 30
0.0
  9
$PLIMCHECK
 70
     0
  9
$PEXTMIN
 10
1.000000000000000E+20
 20
1.000000000000000E+20
 30
1.000000000000000E+20
  9
$PEXTMAX
 10
-1.000000000000000E+20
 20
-1.000000000000000E+20
 30
-1.000000000000000E+20
  9
$PLIMMIN
 10
0.0
 20
0.0
  9
$PLIMMAX
 10
420.0
 20
297.0
  9
$UNITMODE
 70
     0
  9
$VISRETAIN
 70
     1
  9
$PLINEGEN
 70
     0
  9
$PSLTSCALE
 70
     1
  9
$TREEDEPTH
 70
  3020
  9
$PICKSTYLE
 70
     1
  9
$CMLSTYLE
  2
STANDARD
  9
$CMLJUST
 70
     0
  9
$CMLSCALE
 40
20.0
  9
$SAVEIMAGES
 70
     1
  0
ENDSEC
  0
SECTION
  2
CLASSES
  0
CLASS
  1
ACDBDICTIONARYWDFLT
  2
AcDbDictionaryWithDefault
  3
AutoCAD 2000
 90
    32768
280
     0
281
     0
  0
CLASS
  1
ACDBPLACEHOLDER
  2
AcDbPlaceHolder
  3
AutoCAD 2000
 90
    32768
280
     0
281
     0
  0
CLASS
  1
LAYOUT
  2
AcDbLayout
  3
AutoCAD 2000
 90
    32768
280
     0
281
     0
  0
CLASS
  1
DICTIONARYVAR
  2
AcDbDictionaryVar
  3
AutoCAD 2000
 90
    32768
280
     0
281
     0
  0
CLASS
  1
LONG_TRANSACTION
  2
AcDbLongTransaction
  3
AutoCAD 2000
 90
    32768
280
     0
281
     0
  0
CLASS
  1
LWPOLYLINE
  2
AcDbPolyline
  3
AutoCAD 2000
 90
    32768
280
     0
281
     1
  0
CLASS
  1
HATCH
  2
AcDbHatch
  3
AutoCAD 2000
 90
    32768
280
     0
281
     1
  0
CLASS
  1
XRECORD
  2
AcDbXrecord
  3
AutoCAD 2000
 90
    32768
280
     0
281
     0
  0
CLASS
  1
LONG_TRANSACTION
  2
AcDbLongTransaction
  3
AutoCAD 2000
 90
    32768
280
     0
281
     0
  0
CLASS
  1
LWPOLYLINE
  2
AcDbPolyline
  3
AutoCAD 2000
 90
    32768
280
     0
281
     1
  0
CLASS
  1
HATCH
  2
AcDbHatch
  3
AutoCAD 2000
 90
    32768
280
     0
281
     1
  0
CLASS
  1
XRECORD
  2
AcDbXrecord
  3
AutoCAD 2000
 90
    32768
280
     0
281
     0
  0
ENDSEC
  0
SECTION
  2
TABLES
  0
TABLE
  2
VPORT
  5
8
330
0
100
AcDbSymbolTable
 70
     2
  0
VPORT
  5
7B9
330
8
100
AcDbSymbolTableRecord
100
AcDbViewportTableRecord
  2
*ACTIVE
 70
     0
 10
0.0
 20
0.0
 11
1.0
 21
1.0
 12
831.7876880069732
 22
1060.145960778836
 13
0.0
 23
0.0
 14
10.0
 24
10.0
 15
10.0
 25
10.0
 16
0.0
 26
0.0
 36
1.0
 17
0.0
 27
0.0
 37
0.0
 40
1646.886242251718
 41
1.787387387387387
 42
50.0
 43
0.0
 44
0.0
 50
0.0
 51
0.0
 71
     0
 72
   100
 73
     1
 74
     3
 75
     0
 76
     0
 77
     0
 78
     0
  0
ENDTAB
  0
TABLE
  2
LTYPE
  5
5
330
0
100
AcDbSymbolTable
 70
     1
  0
LTYPE
  5
14
330
5
100
AcDbSymbolTableRecord
100
AcDbLinetypeTableRecord
  2
BYBLOCK
 70
     0
  3

 72
    65
 73
     0
 40
0.0
  0
LTYPE
  5
15
330
5
100
AcDbSymbolTableRecord
100
AcDbLinetypeTableRecord
  2
BYLAYER
 70
     0
  3

 72
    65
 73
     0
 40
0.0
  0
LTYPE
  5
16
330
5
100
AcDbSymbolTableRecord
100
AcDbLinetypeTableRecord
  2
CONTINUOUS
 70
     0
  3
Solid line
 72
    65
 73
     0
 40
0.0
  0
ENDTAB
  0
TABLE
  2
LAYER
  5
2
330
0
100
AcDbSymbolTable
 70
     2
  0
LAYER
  5
10
330
2
100
AcDbSymbolTableRecord
100
AcDbLayerTableRecord
  2
0
 70
     0
 62
     7
  6
CONTINUOUS
  0
LAYER
  5
48
330
2
100
AcDbSymbolTableRecord
100
AcDbLayerTableRecord
  2
1
 70
     0
 62
     4
  6
CONTINUOUS
  0
ENDTAB
  0
TABLE
  2
STYLE
  5
3
330
0
100
AcDbSymbolTable
 70
     4
  0
STYLE
  5
11
330
3
100
AcDbSymbolTableRecord
100
AcDbTextStyleTableRecord
  2
STANDARD
 70
     0
 40
0.0
 41
1.0
 50
0.0
 71
     0
 42
2.5
  3
txt
  4

  0
STYLE
  5
4A
330
3
100
AcDbSymbolTableRecord
100
AcDbTextStyleTableRecord
  2
MS-G
 70
     0
 40
3.0
 41
1.0
 50
0.0
 71
     0
 42
3.0
  3
MS Gothic.ttf
  4

1001
ACAD
1000
MS Gothic
1071
    32817
  0
STYLE
  5
4B
330
3
100
AcDbSymbolTableRecord
100
AcDbTextStyleTableRecord
  2
CENTURY
 70
     0
 40
40.0
 41
1.0
 50
0.0
 71
     0
 42
40.0
  3
CENTURY.TTF
  4

1001
ACAD
1000
Century
1071
       18
  0
STYLE
  5
4C
330
3
100
AcDbSymbolTableRecord
100
AcDbTextStyleTableRecord
  2
ｽﾀｲﾙ2
 70
     0
 40
30.0
 41
1.0
 50
0.0
 71
     0
 42
10.0
  3
CENTURY.TTF
  4

1001
ACAD
1000
Century
1071
       18
  0
ENDTAB
  0
TABLE
  2
VIEW
  5
6
330
0
100
AcDbSymbolTable
 70
     0
  0
ENDTAB
  0
TABLE
  2
UCS
  5
7
330
0
100
AcDbSymbolTable
 70
     0
  0
ENDTAB
  0
TABLE
  2
APPID
  5
9
330
0
100
AcDbSymbolTable
 70
     1
  0
APPID
  5
12
330
9
100
AcDbSymbolTableRecord
100
AcDbRegAppTableRecord
  2
ACAD
 70
     0
  0
ENDTAB
  0
TABLE
  2
DIMSTYLE
  5
A
330
0
100
AcDbSymbolTable
 70
     1
  0
DIMSTYLE
105
27
330
A
100
AcDbSymbolTableRecord
100
AcDbDimStyleTableRecord
  2
ISO-25
 70
     0
  3

  4

  5

  6

  7

 40
1.0
 41
2.5
 42
0.625
 43
3.75
 44
1.25
 45
0.0
 46
0.0
 47
0.0
 48
0.0
140
2.5
141
2.5
142
0.0
143
0.03937007874016
144
1.0
145
0.0
146
1.0
147
0.625
 71
     0
 72
     0
 73
     0
 74
     0
 75
     0
 76
     0
 77
     1
 78
     8
170
     0
171
     3
172
     1
173
     0
174
     0
175
     0
176
     0
177
     0
178
     0
270
     2
271
     2
272
     2
273
     2
274
     3
340
11
275
     0
280
     0
281
     0
282
     0
283
     0
284
     8
285
     0
286
     0
287
     3
288
     0
  0
ENDTAB
  0
TABLE
  2
BLOCK_RECORD
  5
1
330
0
100
AcDbSymbolTable
 70
     4
  0
BLOCK_RECORD
  5
1F
102
{ACAD_XDICTIONARY
360
573
102
}
330
1
100
AcDbSymbolTableRecord
100
AcDbBlockTableRecord
  2
*MODEL_SPACE
  0
BLOCK_RECORD
  5
1B
102
{ACAD_XDICTIONARY
360
575
102
}
330
1
100
AcDbSymbolTableRecord
100
AcDbBlockTableRecord
  2
*PAPER_SPACE
  0
BLOCK_RECORD
  5
44
330
1
100
AcDbSymbolTableRecord
100
AcDbBlockTableRecord
  2
_DOTSMALL
  0
BLOCK_RECORD
  5
6B3
330
1
100
AcDbSymbolTableRecord
100
AcDbBlockTableRecord
  2
*X3
  0
ENDTAB
  0
ENDSEC
  0
SECTION
  2
BLOCKS
  0
BLOCK
  5
20
330
1F
100
AcDbEntity
  8
0
100
AcDbBlockBegin
  2
*MODEL_SPACE
 70
     0
 10
0.0
 20
0.0
 30
0.0
  3
*MODEL_SPACE
  1

  0
ENDBLK
  5
21
330
1F
100
AcDbEntity
  8
0
100
AcDbBlockEnd
  0
BLOCK
  5
1C
330
1B
100
AcDbEntity
 67
     1
  8
0
100
AcDbBlockBegin
  2
*PAPER_SPACE
 70
     0
 10
0.0
 20
0.0
 30
0.0
  3
*PAPER_SPACE
  1

  0
ENDBLK
  5
1D
330
1B
100
AcDbEntity
 67
     1
  8
0
100
AcDbBlockEnd
  0
BLOCK
  5
46
330
44
100
AcDbEntity
  8
0
100
AcDbBlockBegin
  2
_DOTSMALL
 70
     0
 10
0.0
 20
0.0
 30
0.0
  3
_DOTSMALL
  1

  0
POLYLINE
  5
45
330
44
100
AcDbEntity
  8
1
 62
     0
100
AcDb2dPolyline
 66
     1
 10
0.0
 20
0.0
 30
0.0
 70
     1
 40
0.5
 41
0.5
  0
VERTEX
  5
7BD
330
45
100
AcDbEntity
  8
1
 62
     0
100
AcDbVertex
100
AcDb2dVertex
 10
-0.0625
 20
0.0
 30
0.0
 42
1.0
  0
VERTEX
  5
7BE
330
45
100
AcDbEntity
  8
1
 62
     0
100
AcDbVertex
100
AcDb2dVertex
 10
0.0625
 20
0.0
 30
0.0
 42
1.0
  0
SEQEND
  5
7BF
330
45
100
AcDbEntity
  8
1
 62
     0
  0
ENDBLK
  5
47
330
44
100
AcDbEntity
  8
0
100
AcDbBlockEnd
  0
BLOCK
  5
6BC
330
6B3
100
AcDbEntity
  8
0
100
AcDbBlockBegin
  2
*X3
 70
     1
 10
0.0
 20
0.0
 30
0.0
  3
*X3
  1

  0
LINE
  5
6B4
330
6B3
100
AcDbEntity
  8
0
 62
     0
100
AcDbLine
 10
1214.927573422384
 20
437.222849882397
 30
0.0
 11
1226.310945674078
 21
425.8394776307032
 31
0.0
  0
LINE
  5
6B5
330
6B3
100
AcDbEntity
  8
0
 62
     0
100
AcDbLine
 10
1205.727129926985
 20
453.1584854686006
 30
0.0
 11
1228.776197078681
 21
430.109418316897
 31
0.0
  0
LINE
  5
6B6
330
6B3
100
AcDbEntity
  8
0
 62
     0
100
AcDbLine
 10
1207.147531919625
 20
458.47327556675
 30
0.0
 11
1231.241448483284
 21
434.3793590030982
 31
0.0
  0
LINE
  5
6B7
330
6B3
100
AcDbEntity
  8
0
 62
     0
100
AcDbLine
 10
1213.882724010429
 20
458.4732755667427
 30
0.0
 11
1233.706699887887
 21
438.649299689292
 31
0.0
  0
LINE
  5
6B8
330
6B3
100
AcDbEntity
  8
0
 62
     0
100
AcDbLine
 10
1220.617916101233
 20
458.47327556675
 30
0.0
 11
1236.171951292482
 21
442.9192403755005
 31
0.0
  0
LINE
  5
6B9
330
6B3
100
AcDbEntity
  8
0
 62
     0
100
AcDbLine
 10
1227.353108192037
 20
458.47327556675
 30
0.0
 11
1238.637202697085
 21
447.1891810617016
 31
0.0
  0
LINE
  5
6BA
330
6B3
100
AcDbEntity
  8
0
 62
     0
100
AcDbLine
 10
1234.088300282834
 20
458.47327556675
 30
0.0
 11
1241.102454101681
 21
451.4591217479028
 31
0.0
  0
LINE
  5
6BB
330
6B3
100
AcDbEntity
  8
0
 62
     0
100
AcDbLine
 10
1240.823492373645
 20
458.47327556675
 30
0.0
 11
1243.567705506284
 21
455.729062434104
 31
0.0
  0
ENDBLK
  5
6BD
330
6B3
100
AcDbEntity
  8
0
100
AcDbBlockEnd
  0
ENDSEC
  0
SECTION
  2
ENTITIES
  0
ARC
  5
2E3
330
1F
100
AcDbEntity
  8
0
100
AcDbCircle
 10
1237.594626534824
 20
1263.355464848566
 30
0.0
 40
106.6116003211486
100
AcDbArc
 50
163.0452386242172
 51
196.9547613757827
  0
LINE
  5
2E4
330
1F
100
AcDbEntity
  8
0
  6
CONTINUOUS
100
AcDbLine
 10
872.0101062781614
 20
1315.944293368545
 30
0.0
 11
809.3128101884939
 21
1196.884602402985
 31
0.0
  0
LINE
  5
2E5
330
1F
100
AcDbEntity
  8
0
  6
CONTINUOUS
100
AcDbLine
 10
866.7102439968585
 20
1318.757091666076
 30
0.0
 11
803.9110383984661
 21
1199.503878565235
 31
0.0
  0
LINE
  5
2E6
330
1F
100
AcDbEntity
  8
0
  6
CONTINUOUS
100
AcDbLine
 10
791.616867041841
 20
1333.667800271478
 30
0.0
 11
791.616867041841
 21
1138.672874205843
 31
0.0
  0
LINE
  5
2E7
330
1F
100
AcDbEntity
  8
0
  6
CONTINUOUS
100
AcDbLine
 10
704.5234900868308
 20
1318.757091666076
 30
0.0
 11
767.3226956852231
 21
1199.503878565235
 31
0.0
  0
LINE
  5
2E8
330
1F
100
AcDbEntity
  8
0
  6
CONTINUOUS
100
AcDbLine
 10
779.616867041841
 20
1333.667800271478
 30
0.0
 11
779.616867041841
 21
1138.672874205843
 31
0.0
  0
LINE
  5
2E9
330
1F
100
AcDbEntity
  8
0
  6
CONTINUOUS
100
AcDbLine
 10
699.2236278055279
 20
1315.944293368545
 30
0.0
 11
761.920923895188
 21
1196.884602402985
 31
0.0
  0
ARC
  5
2EA
330
1F
100
AcDbEntity
  8
0
100
AcDbCircle
 10
567.5946265348175
 20
1263.355464848566
 30
0.0
 40
106.6116003211486
100
AcDbArc
 50
163.0452386242172
 51
196.9547613757827
  0
LINE
  5
2EB
330
1F
100
AcDbEntity
  8
0
100
AcDbLine
 10
435.616867041841
 20
1815.743032819342
 30
0.0
 11
435.6168670418482
 21
501.672874205842
 31
0.0
  0
LINE
  5
2EC
330
1F
100
AcDbEntity
  8
0
100
AcDbLine
 10
890.3863814931101
 20
531.672874205842
 30
0.0
 11
890.3863814931101
 21
1731.672874205837
 31
0.0
  0
LINE
  5
2ED
330
1F
100
AcDbEntity
  8
0
100
AcDbLine
 10
878.38638149311
 20
531.672874205842
 30
0.0
 11
878.38638149311
 21
1731.672874205838
 31
0.0
  0
LINE
  5
2EE
330
1F
100
AcDbEntity
  8
0
100
AcDbLine
 10
680.847352590572
 20
531.672874205842
 30
0.0
 11
680.847352590572
 21
1731.672874205837
 31
0.0
  0
LINE
  5
2EF
330
1F
100
AcDbEntity
  8
0
100
AcDbLine
 10
692.847352590572
 20
531.672874205842
 30
0.0
 11
692.847352590572
 21
1731.672874205838
 31
0.0
  0
LINE
  5
2F0
330
1F
100
AcDbEntity
  8
0
100
AcDbLine
 10
1105.616867041848
 20
1731.672874205844
 30
0.0
 11
1105.616867041855
 21
531.672874205842
 31
0.0
  0
LINE
  5
2F1
330
1F
100
AcDbEntity
  8
0
100
AcDbLine
 10
1190.616867041841
 20
1761.672874205839
 30
0.0
 11
1190.616867041841
 21
421.672874205842
 31
0.0
  0
LINE
  5
2F2
330
1F
100
AcDbEntity
  8
0
100
AcDbLine
 10
465.6168670418483
 20
1731.67287420583
 30
0.0
 11
465.616867041841
 21
531.672874205842
 31
0.0
  0
LINE
  5
2F3
330
1F
100
AcDbEntity
  8
0
100
AcDbLine
 10
1140.616867041848
 20
1566.672874205839
 30
0.0
 11
1140.616867041848
 21
686.6728742058415
 31
0.0
  0
LINE
  5
2F4
330
1F
100
AcDbEntity
  8
0
100
AcDbLine
 10
1135.616867041841
 20
1566.672874205839
 30
0.0
 11
1135.616867041848
 21
686.6728742058415
 31
0.0
  0
LINE
  5
2F5
330
1F
100
AcDbEntity
  8
0
100
AcDbLine
 10
579.2321098218454
 20
1731.672874205834
 30
0.0
 11
579.232109821849
 21
531.6728742058424
 31
0.0
  0
LINE
  5
2F6
330
1F
100
AcDbEntity
  8
0
100
AcDbLine
 10
567.2321098218453
 20
1731.672874205834
 30
0.0
 11
567.232109821849
 21
531.6728742058424
 31
0.0
  0
LINE
  5
2F7
330
1F
100
AcDbEntity
  8
0
100
AcDbLine
 10
1004.001624261858
 20
1731.67287420585
 30
0.0
 11
1004.001624261855
 21
531.6728742058424
 31
0.0
  0
LINE
  5
2F8
330
1F
100
AcDbEntity
  8
0
100
AcDbLine
 10
992.0016242618549
 20
1731.67287420585
 30
0.0
 11
992.0016242618549
 21
531.6728742058424
 31
0.0
  0
LINE
  5
2F9
330
1F
100
AcDbEntity
  8
0
100
AcDbLine
 10
380.6168670418555
 20
1761.672874205839
 30
0.0
 11
380.6168670418555
 21
421.672874205842
 31
0.0
  0
LINE
  5
2FA
330
1F
100
AcDbEntity
  8
0
100
AcDbLine
 10
430.6168670418482
 20
1761.672874205839
 30
0.0
 11
430.6168670418482
 21
421.672874205842
 31
0.0
  0
LINE
  5
2FB
330
1F
100
AcDbEntity
  8
0
100
AcDbLine
 10
1402.99737630094
 20
421.6728742058418
 30
0.0
 11
1402.99737630094
 21
1871.672874205842
 31
0.0
  0
LINE
  5
2FC
330
1F
100
AcDbEntity
  8
0
100
AcDbLine
 10
1323.270391750069
 20
501.6728742058427
 30
0.0
 11
1323.270391750069
 21
1761.672874205839
 31
0.0
  0
LINE
  5
2FD
330
1F
100
AcDbEntity
  8
0
  6
CONTINUOUS
 62
     7
100
AcDbLine
 10
1126.916867041858
 20
684.6728742058416
 30
0.0
 11
1126.916867041858
 21
610.672874205842
 31
0.0
  0
LINE
  5
2FE
330
1F
100
AcDbEntity
  8
0
  6
CONTINUOUS
 62
     7
100
AcDbLine
 10
1146.916867041858
 20
684.6728742058416
 30
0.0
 11
1146.916867041858
 21
610.672874205842
 31
0.0
  0
ARC
  5
2FF
330
1F
100
AcDbEntity
  8
0
100
AcDbCircle
 10
1066.691631194356
 20
611.3872330621323
 30
0.0
 40
41.59279291423044
100
AcDbArc
 50
339.3683311470855
 51
20.63166885291452
  0
ARC
  5
300
330
1F
100
AcDbEntity
  8
0
100
AcDbCircle
 10
396.6916311943496
 20
611.3872330621323
 30
0.0
 40
41.59279291423044
100
AcDbArc
 50
339.3683311470855
 51
20.63166885291452
  0
ARC
  5
301
330
1F
100
AcDbEntity
  8
0
100
AcDbCircle
 10
488.8539447878574
 20
611.3872330621323
 30
0.0
 40
27.47268131795497
100
AcDbArc
 50
147.7604243754351
 51
212.2395756245648
  0
LINE
  5
302
330
1F
100
AcDbEntity
  8
0
  6
CONTINUOUS
100
AcDbLine
 10
791.616867041841
 20
531.6728742058429
 30
0.0
 11
791.616867041841
 21
811.9337497979103
 31
0.0
  0
LINE
  5
303
330
1F
100
AcDbEntity
  8
0
  6
CONTINUOUS
100
AcDbLine
 10
779.616867041841
 20
531.6728742058429
 30
0.0
 11
779.616867041841
 21
811.9337497979103
 31
0.0
  0
MTEXT
  5
304
330
1F
100
AcDbEntity
  8
0
 62
   255
100
AcDbMText
 10
785.6168670418555
 20
276.8317956962006
 30
0.0
 40
40.0
 41
0.0
 71
     5
 72
     1
  1
810
  7
CENTURY
1001
ACAD
1000
MTEXTBEGIN
1070
    73
1070
     1
1070
    44
1040
1.0
1070
    74
1070
     0
1000
MTEXTEND
  0
LINE
  5
305
330
1F
100
AcDbEntity
  8
0
100
AcDbLine
 10
1190.616867041855
 20
371.6728742058438
 30
0.0
 11
1190.616867041855
 21
251.4609347690483
 31
0.0
  0
LINE
  5
306
330
1F
100
AcDbEntity
  8
0
100
AcDbLine
 10
380.6168670418555
 20
371.6728742058438
 30
0.0
 11
380.6168670418555
 21
251.4609347690483
 31
0.0
  0
LINE
  5
307
330
1F
100
AcDbEntity
  8
0
100
AcDbLine
 10
380.6168670418555
 20
251.4609347690483
 30
0.0
 11
1190.616867041855
 21
251.4609347690483
 31
0.0
  0
INSERT
  5
308
330
1F
100
AcDbEntity
  8
0
100
AcDbBlockReference
  2
_DOTSMALL
 10
380.6168670418555
 20
251.4609347690483
 30
0.0
 41
25.0
 42
25.0
 43
25.0
 50
180.0
  0
INSERT
  5
309
330
1F
100
AcDbEntity
  8
0
100
AcDbBlockReference
  2
_DOTSMALL
 10
1190.616867041855
 20
251.4609347690483
 30
0.0
 41
25.0
 42
25.0
 43
25.0
  0
LINE
  5
30A
330
1F
100
AcDbEntity
  8
0
100
AcDbLine
 10
1223.90535606513
 20
421.672874205842
 30
0.0
 11
254.6111122957881
 21
421.672874205842
 31
0.0
  0
ARC
  5
30B
330
1F
100
AcDbEntity
  8
0
100
AcDbCircle
 10
580.1983116495248
 20
571.2544737014122
 30
0.0
 40
47.3092865871033
100
AcDbArc
 50
236.7886702846587
 51
303.2113297153411
  0
LINE
  5
30C
330
1F
100
AcDbEntity
  8
0
100
AcDbLine
 10
710.9446566848419
 20
501.672874205842
 30
0.0
 11
435.6168670418482
 21
501.672874205842
 31
0.0
  0
LINE
  5
30D
330
1F
100
AcDbEntity
  8
0
100
AcDbLine
 10
1135.616867041848
 20
501.672874205842
 30
0.0
 11
435.6168670418482
 21
501.672874205842
 31
0.0
  0
LINE
  5
30E
330
1F
100
AcDbEntity
  8
0
100
AcDbLine
 10
1105.616867041848
 20
531.672874205842
 30
0.0
 11
465.616867041841
 21
531.672874205842
 31
0.0
  0
LINE
  5
30F
330
1F
100
AcDbEntity
  8
0
100
AcDbLine
 10
430.6168670418482
 20
321.8205356315401
 30
0.0
 11
1140.616867041851
 21
321.8205356315401
 31
0.0
  0
MTEXT
  5
310
330
1F
100
AcDbEntity
  8
0
 62
   255
100
AcDbMText
 10
405.6168670418555
 20
342.0986813269061
 30
0.0
 40
30.0
 41
0.0
 71
     5
 72
     1
  1
50
  7
ｽﾀｲﾙ2
1001
ACAD
1000
MTEXTBEGIN
1070
    73
1070
     1
1070
    44
1040
1.0
1070
    74
1070
     0
1000
MTEXTEND
  0
LINE
  5
311
330
1F
100
AcDbEntity
  8
0
100
AcDbLine
 10
380.6168670418555
 20
371.672874205842
 30
0.0
 11
380.6168670418555
 21
321.8205356315419
 31
0.0
  0
LINE
  5
312
330
1F
100
AcDbEntity
  8
0
100
AcDbLine
 10
430.6168670418555
 20
371.6728742058429
 30
0.0
 11
430.6168670418555
 21
321.8205356315419
 31
0.0
  0
LINE
  5
313
330
1F
100
AcDbEntity
  8
0
100
AcDbLine
 10
430.6168670418482
 20
371.6728742058425
 30
0.0
 11
430.6168670418482
 21
321.8205356315401
 31
0.0
  0
LINE
  5
314
330
1F
100
AcDbEntity
  8
0
100
AcDbLine
 10
430.6168670418555
 20
321.8205356315419
 30
0.0
 11
380.6168670418555
 21
321.8205356315419
 31
0.0
  0
INSERT
  5
315
330
1F
100
AcDbEntity
  8
0
100
AcDbBlockReference
  2
_DOTSMALL
 10
380.6168670418555
 20
321.8205356315419
 30
0.0
 41
25.0
 42
25.0
 43
25.0
 50
180.0
  0
INSERT
  5
316
330
1F
100
AcDbEntity
  8
0
100
AcDbBlockReference
  2
_DOTSMALL
 10
430.6168670418555
 20
321.8205356315419
 30
0.0
 41
25.0
 42
25.0
 43
25.0
  0
INSERT
  5
317
330
1F
100
AcDbEntity
  8
0
100
AcDbBlockReference
  2
_DOTSMALL
 10
430.6168670418482
 20
321.8205356315401
 30
0.0
 41
25.0
 42
25.0
 43
25.0
 50
180.0
  0
LINE
  5
318
330
1F
100
AcDbEntity
  8
0
100
AcDbLine
 10
430.6168670418555
 20
421.6728742058411
 30
0.0
 11
380.6168670418555
 21
421.672874205842
 31
0.0
  0
ARC
  5
319
330
1F
100
AcDbEntity
  8
0
100
AcDbCircle
 10
535.7803577006925
 20
603.5764664038159
 30
0.0
 40
74.24670187285427
100
AcDbArc
 50
255.5674138150362
 51
284.4325861849637
  0
ARC
  5
31A
330
1F
100
AcDbEntity
  8
0
100
AcDbCircle
 10
535.7803577006925
 20
453.958611844553
 30
0.0
 40
51.17711403260225
100
AcDbArc
 50
68.80192224708316
 51
111.1980777529168
  0
LINE
  5
31B
330
1F
100
AcDbEntity
  8
0
100
AcDbLine
 10
534.5079620317483
 20
507.3719624502463
 30
0.0
 11
533.5209850210595
 21
526.7961295382137
 31
0.0
  0
LINE
  5
31C
330
1F
100
AcDbEntity
  8
0
100
AcDbLine
 10
535.8239275644373
 20
527.4545712672351
 30
0.0
 11
535.4949390424299
 21
506.7135207212285
 31
0.0
  0
LINE
  5
31D
330
1F
100
AcDbEntity
  8
0
100
AcDbLine
 10
506.8354792187456
 20
506.713851205708
 30
0.0
 11
506.8354792187456
 21
527.1256808872075
 31
0.0
  0
LINE
  5
31E
330
1F
100
AcDbEntity
  8
0
100
AcDbLine
 10
509.7964102508049
 20
527.1256808872075
 30
0.0
 11
508.809433240116
 21
508.6891763927723
 31
0.0
  0
ARC
  5
31F
330
1F
100
AcDbEntity
  8
0
100
AcDbCircle
 10
509.12685692175
 20
548.6493122871778
 30
0.0
 40
18.83062952425546
100
AcDbArc
 50
244.3603398615388
 51
295.6396601384611
  0
ARC
  5
320
330
1F
100
AcDbEntity
  8
0
100
AcDbCircle
 10
509.12685692175
 20
489.433968772233
 30
0.0
 40
14.70319572620801
100
AcDbArc
 50
56.34582724878332
 51
123.6541727512166
  0
LINE
  5
321
330
1F
100
AcDbEntity
  8
0
100
AcDbLine
 10
562.2835337085052
 20
531.672874205842
 30
0.0
 11
574.2835337085052
 21
531.672874205842
 31
0.0
  0
LINE
  5
322
330
1F
100
AcDbEntity
  8
0
100
AcDbLine
 10
474.1781782513135
 20
524.6103634973969
 30
0.0
 11
474.2157282179396
 21
507.0380759224661
 31
0.0
  0
LINE
  5
323
330
1F
100
AcDbEntity
  8
0
100
AcDbLine
 10
475.5316937506286
 20
506.3796341934447
 30
0.0
 11
477.5056477720063
 21
525.8038012814121
 31
0.0
  0
ARC
  5
324
330
1F
100
AcDbEntity
  8
0
100
AcDbCircle
 10
382.7455738876815
 20
575.1149094845458
 30
0.0
 40
57.11966942967778
100
AcDbArc
 50
337.7625217861409
 51
22.23747821385844
  0
LINE
  5
325
330
1F
100
AcDbEntity
  8
0
100
AcDbLine
 10
446.7899048524705
 20
546.272186138878
 30
0.0
 11
463.8688762976235
 21
546.6068397731905
 31
0.0
  0
LINE
  5
326
330
1F
100
AcDbEntity
  8
0
100
AcDbLine
 10
463.8688762976235
 20
549.9532960036157
 30
0.0
 11
446.1201294497587
 21
547.6107777867854
 31
0.0
  0
LINE
  5
327
330
1F
100
AcDbEntity
  8
0
100
AcDbLine
 10
440.3823745209956
 20
579.9132252750131
 30
0.0
 11
459.7380146796786
 21
581.3284962208198
 31
0.0
  0
LINE
  5
328
330
1F
100
AcDbEntity
  8
0
100
AcDbLine
 10
440.6125666825974
 20
608.0387225132034
 30
0.0
 11
458.343642330823
 21
608.0387225132034
 31
0.0
  0
LINE
  5
329
330
1F
100
AcDbEntity
  8
0
100
AcDbLine
 10
1140.616867041848
 20
531.672874205842
 30
0.0
 11
1140.616867041848
 21
421.672874205842
 31
0.0
  0
MTEXT
  5
32A
330
1F
100
AcDbEntity
  8
0
 62
   255
100
AcDbMText
 10
1302.992246054706
 20
461.6728742058452
 30
0.0
 40
30.0
 41
0.0
 71
     5
 72
     1
  1
80
  7
ｽﾀｲﾙ2
 11
0.0000000000000001
 21
1.0
 31
0.0
1001
ACAD
1000
MTEXTBEGIN
1070
    73
1070
     1
1070
    44
1040
1.0
1070
    74
1070
     0
1000
MTEXTEND
  0
LINE
  5
32B
330
1F
100
AcDbEntity
  8
0
100
AcDbLine
 10
1323.270391750069
 20
501.6728742058427
 30
0.0
 11
1323.270391750069
 21
421.6728742058418
 31
0.0
  0
LINE
  5
32C
330
1F
100
AcDbEntity
  8
0
100
AcDbLine
 10
1273.90535606513
 20
421.6728742058418
 30
0.0
 11
1402.99737630094
 21
421.6728742058418
 31
0.0
  0
MTEXT
  5
32D
330
1F
100
AcDbEntity
  8
0
 62
   255
100
AcDbMText
 10
785.6168670418483
 20
342.0986813269042
 30
0.0
 40
30.0
 41
0.0
 71
     5
 72
     1
  1
710
  7
ｽﾀｲﾙ2
1001
ACAD
1000
MTEXTBEGIN
1070
    73
1070
     1
1070
    44
1040
1.0
1070
    74
1070
     0
1000
MTEXTEND
  0
MTEXT
  5
32E
330
1F
100
AcDbEntity
  8
0
 62
   255
100
AcDbMText
 10
1165.616867041855
 20
342.0986813269042
 30
0.0
 40
30.0
 41
0.0
 71
     5
 72
     1
  1
50
  7
ｽﾀｲﾙ2
1001
ACAD
1000
MTEXTBEGIN
1070
    73
1070
     1
1070
    44
1040
1.0
1070
    74
1070
     0
1000
MTEXTEND
  0
LINE
  5
32F
330
1F
100
AcDbEntity
  8
0
100
AcDbLine
 10
1140.616867041855
 20
371.6728742058429
 30
0.0
 11
1140.616867041855
 21
321.8205356315401
 31
0.0
  0
LINE
  5
330
330
1F
100
AcDbEntity
  8
0
100
AcDbLine
 10
1190.616867041855
 20
371.6728742058438
 30
0.0
 11
1190.616867041855
 21
321.8205356315401
 31
0.0
  0
LINE
  5
331
330
1F
100
AcDbEntity
  8
0
100
AcDbLine
 10
1140.616867041851
 20
371.6728742058411
 30
0.0
 11
1140.616867041851
 21
321.8205356315401
 31
0.0
  0
LINE
  5
332
330
1F
100
AcDbEntity
  8
0
100
AcDbLine
 10
1190.616867041855
 20
321.8205356315401
 30
0.0
 11
1140.616867041855
 21
321.8205356315401
 31
0.0
  0
INSERT
  5
333
330
1F
100
AcDbEntity
  8
0
100
AcDbBlockReference
  2
_DOTSMALL
 10
1140.616867041855
 20
321.8205356315401
 30
0.0
 41
25.0
 42
25.0
 43
25.0
 50
180.0
  0
INSERT
  5
334
330
1F
100
AcDbEntity
  8
0
100
AcDbBlockReference
  2
_DOTSMALL
 10
1140.616867041851
 20
321.8205356315401
 30
0.0
 41
25.0
 42
25.0
 43
25.0
  0
INSERT
  5
335
330
1F
100
AcDbEntity
  8
0
100
AcDbBlockReference
  2
_DOTSMALL
 10
1190.616867041855
 20
321.8205356315401
 30
0.0
 41
25.0
 42
25.0
 43
25.0
  0
LINE
  5
336
330
1F
100
AcDbEntity
  8
0
100
AcDbLine
 10
1245.15207769713
 20
458.4732755667481
 30
0.0
 11
1223.90535606513
 21
421.672874205842
 31
0.0
1001
ACAD
1000
ASC_BOUNDS
1002
{
1070
    19
1005
33B
1002
}
  0
LINE
  5
337
330
1F
100
AcDbEntity
  8
0
100
AcDbLine
 10
1202.658634433122
 20
458.4732755667481
 30
0.0
 11
1223.90535606513
 21
421.672874205842
 31
0.0
1001
ACAD
1000
ASC_BOUNDS
1002
{
1070
    19
1005
33B
1002
}
  0
INSERT
  5
338
330
1F
100
AcDbEntity
  8
0
100
AcDbBlockReference
  2
_DOTSMALL
 10
1323.270391750069
 20
421.6728742058418
 30
0.0
 41
25.0
 42
25.0
 43
25.0
 50
270.0
  0
LINE
  5
339
330
1F
100
AcDbEntity
  8
0
100
AcDbLine
 10
1140.616867041855
 20
421.6728742058411
 30
0.0
 11
1190.616867041855
 21
421.672874205842
 31
0.0
  0
LINE
  5
33A
330
1F
100
AcDbEntity
  8
0
100
AcDbLine
 10
1273.90535606513
 20
421.6728742058418
 30
0.0
 11
1323.270391750069
 21
421.6728742058418
 31
0.0
  0
INSERT
  5
33B
330
1F
100
AcDbEntity
  8
0
  6
CONTINUOUS
100
AcDbBlockReference
  2
*X3
 10
0.0
 20
0.0
 30
0.0
1001
ACAD
1000
HATCH
1002
{
1070
    19
1000
ANSI31
1040
1.5
1040
0.0
1000
ASC_BOUNDS
1070
     1
1070
     1
1070
     3
1005
336
1005
33C
1005
337
1000
ASC_SEEDPOINT
1011
1217.495585432487
1021
450.5151376728735
1031
0.0
1000
R14_HATCH_DATA
1000
33B
1011
1.0
1021
0.0
1031
0.0
1011
0.0
1021
1.0
1031
0.0
1011
0.0
1021
0.0
1031
1.0
1040
0.0
1010
0.0
1020
0.0
1030
1.0
1000
ANSI31
1070
     0
1070
     1
1071
        1
1071
        7
1070
     0
1070
     1
1071
        3
1040
1202.658634433122
1040
458.4732755667483
1040
1223.905356065133
1040
421.6728742058416
1040
1245.15207769713
1040
458.4732755667481
1071
        3
1005
337
1005
33C
1005
336
1070
     0
1070
     1
1040
0.0
1040
1.5
1070
     0
1070
     1
1040
5.497787143782137
1040
-57083.42132085563
1040
21772.83754983979
1040
-3.367596045400931
1040
-3.367596045400932
1070
     0
1040
0.0587250622807417
1071
        1
1040
1217.495585432487
1040
450.5151376728735
1040
0.0
1002
}
  0
LINE
  5
33C
330
1F
100
AcDbEntity
  8
0
100
AcDbLine
 10
1202.658634433122
 20
458.4732755667481
 30
0.0
 11
1245.15207769713
 21
458.4732755667481
 31
0.0
1001
ACAD
1000
ASC_BOUNDS
1002
{
1070
    19
1005
33B
1002
}
  0
INSERT
  5
33D
330
1F
100
AcDbEntity
  8
0
100
AcDbBlockReference
  2
_DOTSMALL
 10
1402.99737630094
 20
421.6728742058418
 30
0.0
 41
25.0
 42
25.0
 43
25.0
 50
270.0
  0
LINE
  5
33E
330
1F
100
AcDbEntity
  8
0
  6
CONTINUOUS
 62
     7
100
AcDbLine
 10
1126.916867041858
 20
607.6728742058421
 30
0.0
 11
1126.916867041858
 21
533.672874205842
 31
0.0
  0
LINE
  5
33F
330
1F
100
AcDbEntity
  8
0
  6
CONTINUOUS
 62
     7
100
AcDbLine
 10
1146.916867041858
 20
533.672874205842
 30
0.0
 11
1146.916867041858
 21
607.6728742058421
 31
0.0
  0
ARC
  5
340
330
1F
100
AcDbEntity
  8
0
100
AcDbCircle
 10
970.2229482152469
 20
554.9099519518584
 30
0.0
 40
27.47268131795497
100
AcDbArc
 50
237.7604243754138
 51
302.239575624586
  0
ARC
  5
341
330
1F
100
AcDbEntity
  8
0
100
AcDbCircle
 10
970.2229482152469
 20
462.7476383583542
 30
0.0
 40
41.59279291423044
100
AcDbArc
 50
69.36833114710605
 51
110.6316688528939
  0
ARC
  5
342
330
1F
100
AcDbEntity
  8
0
100
AcDbCircle
 10
785.785540573801
 20
586.9173153205064
 30
0.0
 40
59.25027723911768
100
AcDbArc
 50
248.8106919802424
 51
291.1893080197575
  0
ARC
  5
343
330
1F
100
AcDbEntity
  8
0
100
AcDbCircle
 10
752.6022596791153
 20
473.2571643981299
 30
0.0
 40
30.75581818224811
100
AcDbArc
 50
67.50505788332779
 51
112.4949421166722
  0
LINE
  5
344
330
1F
100
AcDbEntity
  8
0
100
AcDbLine
 10
754.1765715000438
 20
527.0627527538471
 30
0.0
 11
754.1765715000438
 21
505.6221054407232
 31
0.0
  0
LINE
  5
345
330
1F
100
AcDbEntity
  8
0
100
AcDbLine
 10
751.4496725519784
 20
506.4017572134524
 30
0.0
 11
752.228791441994
 21
529.4017275123023
 31
0.0
  0
LINE
  5
346
330
1F
100
AcDbEntity
  8
0
100
AcDbLine
 10
709.250754538676
 20
504.8040202668033
 30
0.0
 11
712.863196375445
 21
525.288906459007
 31
0.0
  0
LINE
  5
347
330
1F
100
AcDbEntity
  8
0
100
AcDbLine
 10
708.0466148895356
 20
525.288906459007
 30
0.0
 11
707.4445450649655
 21
502.9965228756244
 31
0.0
  0
ARC
  5
348
330
1F
100
AcDbEntity
  8
0
100
AcDbCircle
 10
664.0000176359681
 20
570.5981100533298
 30
0.0
 40
41.59279291423044
100
AcDbArc
 50
249.368331147106
 51
290.6316688528939
  0
ARC
  5
349
330
1F
100
AcDbEntity
  8
0
100
AcDbCircle
 10
664.0000176359681
 20
478.4357964598256
 30
0.0
 40
27.47268131795497
100
AcDbArc
 50
57.76042437541389
 51
122.2395756245861
  0
ARC
  5
34A
330
1F
100
AcDbEntity
  8
0
100
AcDbCircle
 10
627.7276940583833
 20
584.5441673600015
 30
0.0
 40
57.11966942967778
100
AcDbArc
 50
247.7625217861605
 51
292.2374782138394
  0
LINE
  5
34B
330
1F
100
AcDbEntity
  8
0
100
AcDbLine
 10
632.5260098488506
 20
526.9073667266837
 30
0.0
 11
633.9412807946573
 21
507.5517265680008
 31
0.0
  0
LINE
  5
34C
330
1F
100
AcDbEntity
  8
0
100
AcDbLine
 10
598.8849707127156
 20
520.4998363952089
 30
0.0
 11
599.2196243470243
 21
503.4208649500595
 31
0.0
  0
LINE
  5
34D
330
1F
100
AcDbEntity
  8
0
100
AcDbLine
 10
602.5660805774532
 20
503.4208649500595
 30
0.0
 11
600.2235623606248
 21
521.1696117979244
 31
0.0
  0
LINE
  5
34E
330
1F
100
AcDbEntity
  8
0
100
AcDbLine
 10
660.6515070870373
 20
526.6771745650856
 30
0.0
 11
660.6515070870373
 21
508.9460989168563
 31
0.0
  0
LINE
  5
34F
330
1F
100
AcDbEntity
  8
0
100
AcDbLine
 10
682.5758693913594
 20
522.192655671255
 30
0.0
 11
683.0476301881863
 21
504.2532775982707
 31
0.0
  0
LINE
  5
350
330
1F
100
AcDbEntity
  8
0
100
AcDbLine
 10
681.6323592423795
 20
503.3091028744728
 30
0.0
 11
680.2170882965729
 21
520.3043062236555
 31
0.0
  0
ARC
  5
351
330
1F
100
AcDbEntity
  8
0
100
AcDbCircle
 10
709.7453188431245
 20
633.6506336988222
 30
0.0
 40
106.6116003211486
100
AcDbArc
 50
253.0452386241559
 51
286.954761375844
  0
ARC
  5
352
330
1F
100
AcDbEntity
  8
0
100
AcDbCircle
 10
933.9506246376549
 20
448.8015810516862
 30
0.0
 40
57.11966942967778
100
AcDbArc
 50
67.7625217861606
 51
112.2374782138394
  0
LINE
  5
353
330
1F
100
AcDbEntity
  8
0
100
AcDbLine
 10
935.2542070359705
 20
530.708890838532
 30
0.0
 11
936.2635583791051
 21
506.9726011145738
 31
0.0
  0
LINE
  5
354
330
1F
100
AcDbEntity
  8
0
100
AcDbLine
 10
932.7308515674813
 20
508.9926972287702
 30
0.0
 11
935.2542070359705
 21
530.708890838532
 31
0.0
  0
LINE
  5
355
330
1F
100
AcDbEntity
  8
0
100
AcDbLine
 10
843.8211713184355
 20
526.7508531642286
 30
0.0
 11
840.8604577351361
 21
507.9864303029479
 31
0.0
  0
LINE
  5
356
330
1F
100
AcDbEntity
  8
0
100
AcDbLine
 10
839.8735493924759
 20
507.4926476068411
 30
0.0
 11
840.8604577351361
 21
527.7384574369697
 31
0.0
  0
ARC
  5
357
330
1F
100
AcDbEntity
  8
0
100
AcDbCircle
 10
842.0032882799715
 20
603.5764664038159
 30
0.0
 40
74.24670187285427
100
AcDbArc
 50
255.5674138150362
 51
284.4325861849637
  0
ARC
  5
358
330
1F
100
AcDbEntity
  8
0
100
AcDbCircle
 10
842.0032882799715
 20
453.958611844553
 30
0.0
 40
51.17711403260225
100
AcDbArc
 50
68.80192224708316
 51
111.1980777529168
  0
LINE
  5
359
330
1F
100
AcDbEntity
  8
0
100
AcDbLine
 10
890.9166118468711
 20
526.0353931419903
 30
0.0
 11
888.3918029051201
 21
510.514889310967
 31
0.0
  0
LINE
  5
35A
330
1F
100
AcDbEntity
  8
0
100
AcDbLine
 10
890.9166118468711
 20
510.514889310967
 30
0.0
 11
890.9166118468711
 21
526.0353931419903
 31
0.0
  0
LINE
  5
35B
330
1F
100
AcDbEntity
  8
0
100
AcDbLine
 10
788.1278871205577
 20
503.7983365488888
 30
0.0
 11
786.9504364449531
 21
525.4002602890595
 31
0.0
  0
LINE
  5
35C
330
1F
100
AcDbEntity
  8
0
100
AcDbLine
 10
782.2405994085275
 20
526.1857830214047
 30
0.0
 11
788.1278871205577
 21
503.7983365488888
 31
0.0
  0
LINE
  5
35D
330
1F
100
AcDbEntity
  8
0
100
AcDbLine
 10
813.6664537410323
 20
527.7349581895158
 30
0.0
 11
816.6271787690057
 21
505.5139398139052
 31
0.0
  0
LINE
  5
35E
330
1F
100
AcDbEntity
  8
0
100
AcDbLine
 10
813.6664537410323
 20
506.9953462230167
 30
0.0
 11
812.1860969493791
 21
528.2287603258863
 31
0.0
  0
LINE
  5
35F
330
1F
100
AcDbEntity
  8
0
100
AcDbLine
 10
779.616867041841
 20
531.672874205842
 30
0.0
 11
791.616867041841
 21
531.672874205842
 31
0.0
  0
ARC
  5
360
330
1F
100
AcDbEntity
  8
0
100
AcDbCircle
 10
815.3497875010216
 20
548.6493122871778
 30
0.0
 40
18.83062952425546
100
AcDbArc
 50
244.3603398615388
 51
295.6396601384611
  0
ARC
  5
361
330
1F
100
AcDbEntity
  8
0
100
AcDbCircle
 10
815.3497875010216
 20
489.433968772233
 30
0.0
 40
14.70319572620801
100
AcDbArc
 50
56.34582724878332
 51
123.6541727512166
  0
ARC
  5
362
330
1F
100
AcDbEntity
  8
0
100
AcDbCircle
 10
886.4212422288037
 20
462.0912747102756
 30
0.0
 40
47.3092865871033
100
AcDbArc
 50
56.78867028465877
 51
123.2113297153412
  0
INSERT
  5
363
330
1F
100
AcDbEntity
  8
0
100
AcDbBlockReference
  2
_DOTSMALL
 10
1323.270391750069
 20
501.6728742058427
 30
0.0
 41
25.0
 42
25.0
 43
25.0
 50
90.0
  0
INSERT
  5
364
330
1F
100
AcDbEntity
  8
0
100
AcDbBlockReference
  2
_DOTSMALL
 10
1323.270391750069
 20
501.6728742058427
 30
0.0
 41
25.0
 42
25.0
 43
25.0
 50
270.0
  0
TEXT
  5
365
330
1F
100
AcDbEntity
  8
0
100
AcDbText
 10
1207.813072346383
 20
469.5970858177314
 30
0.0
 40
25.0
  1
GL
  7
MS-G
100
AcDbText
  0
LINE
  5
366
330
1F
100
AcDbEntity
  8
0
  6
CONTINUOUS
 62
     7
100
AcDbLine
 10
1126.916867041858
 20
533.672874205842
 30
0.0
 11
1146.916867041858
 21
533.672874205842
 31
0.0
  0
LINE
  5
367
330
1F
100
AcDbEntity
  8
0
  6
CONTINUOUS
 62
     7
100
AcDbLine
 10
1128.916867041858
 20
533.672874205842
 30
0.0
 11
1144.916867041858
 21
533.672874205842
 31
0.0
  0
LINE
  5
368
330
1F
100
AcDbEntity
  8
0
  6
CONTINUOUS
 62
     7
100
AcDbLine
 10
1127.916867041858
 20
531.672874205842
 30
0.0
 11
1145.916867041858
 21
531.672874205842
 31
0.0
  0
LINE
  5
369
330
1F
100
AcDbEntity
  8
0
100
AcDbLine
 10
1113.344554133378
 20
527.5855270756872
 30
0.0
 11
1135.616867041848
 21
525.3521120574658
 31
0.0
  0
ARC
  5
36A
330
1F
100
AcDbEntity
  8
0
  6
CONTINUOUS
 62
     7
100
AcDbCircle
 10
1127.916867041858
 20
533.172874205842
 30
0.0
 40
0.5
100
AcDbArc
 50
90.0
 51
180.0
  0
LINE
  5
36B
330
1F
100
AcDbEntity
  8
0
  6
CONTINUOUS
 62
     7
100
AcDbLine
 10
1127.416867041858
 20
533.172874205842
 30
0.0
 11
1127.416867041858
 21
532.172874205842
 31
0.0
  0
ARC
  5
36C
330
1F
100
AcDbEntity
  8
0
  6
CONTINUOUS
 62
     7
100
AcDbCircle
 10
1127.916867041858
 20
532.172874205842
 30
0.0
 40
0.5
100
AcDbArc
 50
180.0
 51
270.0
  0
ARC
  5
36D
330
1F
100
AcDbEntity
  8
0
100
AcDbCircle
 10
1121.5727180803
 20
543.911779639451
 30
0.0
 40
14.70319572620801
100
AcDbArc
 50
236.3458272487833
 51
303.6541727512166
  0
ARC
  5
36E
330
1F
100
AcDbEntity
  8
0
  6
CONTINUOUS
 62
     7
100
AcDbCircle
 10
1145.916867041858
 20
533.172874205842
 30
0.0
 40
0.5
100
AcDbArc
 50
0.0
 51
90.0
  0
ARC
  5
36F
330
1F
100
AcDbEntity
  8
0
  6
CONTINUOUS
 62
     7
100
AcDbCircle
 10
1145.916867041858
 20
532.172874205842
 30
0.0
 40
0.5
100
AcDbArc
 50
270.0
 51
0.0
  0
LINE
  5
370
330
1F
100
AcDbEntity
  8
0
  6
CONTINUOUS
 62
     7
100
AcDbLine
 10
1146.416867041858
 20
532.172874205842
 30
0.0
 11
1146.416867041858
 21
533.172874205842
 31
0.0
  0
LINE
  5
371
330
1F
100
AcDbEntity
  8
0
100
AcDbLine
 10
1135.616867041848
 20
531.672874205842
 30
0.0
 11
1135.616867041848
 21
501.672874205842
 31
0.0
  0
LINE
  5
372
330
1F
100
AcDbEntity
  8
0
100
AcDbLine
 10
1135.616867041848
 20
531.672874205842
 30
0.0
 11
1135.616867041848
 21
501.672874205842
 31
0.0
  0
LINE
  5
373
330
1F
100
AcDbEntity
  8
0
100
AcDbLine
 10
1057.731188403784
 20
527.2557751313923
 30
0.0
 11
1055.827687779106
 21
517.731601175621
 31
0.0
  0
LINE
  5
374
330
1F
100
AcDbEntity
  8
0
100
AcDbLine
 10
1095.235113119364
 20
529.1663836808456
 30
0.0
 11
1088.890118666895
 21
506.3083273064639
 31
0.0
  0
LINE
  5
375
330
1F
100
AcDbEntity
  8
0
100
AcDbLine
 10
1088.890118666895
 20
511.3878932296301
 30
0.0
 11
1092.062615893126
 21
529.1663836808456
 31
0.0
  0
ARC
  5
376
330
1F
100
AcDbEntity
  8
0
100
AcDbCircle
 10
1015.968249422403
 20
399.6951147128619
 30
0.0
 40
106.6116003211486
100
AcDbArc
 50
73.04523862415599
 51
106.954761375844
  0
LINE
  5
377
330
1F
100
AcDbEntity
  8
0
100
AcDbLine
 10
971.1360899288557
 20
502.4273508371751
 30
0.0
 11
971.1360899288557
 21
527.1736983383615
 31
0.0
  0
LINE
  5
378
330
1F
100
AcDbEntity
  8
0
100
AcDbLine
 10
968.6127230156925
 20
525.658621392651
 30
0.0
 11
971.1360899288557
 21
502.4273508371751
 31
0.0
  0
LINE
  5
379
330
1F
100
AcDbEntity
  8
0
100
AcDbLine
 10
1018.122485628875
 20
506.9741174551362
 30
0.0
 11
1019.636512643577
 21
530.2054074508759
 31
0.0
  0
LINE
  5
37A
330
1F
100
AcDbEntity
  8
0
100
AcDbLine
 10
1012.571087575655
 20
508.9942330095963
 30
0.0
 11
1015.094454488818
 21
531.7204843965863
 31
0.0
  0
LINE
  5
37B
330
1F
100
AcDbEntity
  8
0
100
AcDbLine
 10
996.9502003751768
 20
531.672874205842
 30
0.0
 11
1008.950200375176
 21
531.672874205842
 31
0.0
  0
LINE
  5
37C
330
1F
100
AcDbEntity
  8
0
100
AcDbLine
 10
1054.558691177546
 20
529.1606293628118
 30
0.0
 11
1053.289694575985
 21
503.1278418564196
 31
0.0
  0
ARC
  5
37D
330
1F
100
AcDbEntity
  8
0
100
AcDbCircle
 10
1058.825190258394
 20
560.0885840135541
 30
0.0
 40
30.75581818224811
100
AcDbArc
 50
247.5050578833277
 51
292.4949421166722
  0
LINE
  5
37E
330
1F
100
AcDbEntity
  8
0
100
AcDbLine
 10
1240.616867041848
 20
501.6728742058427
 30
0.0
 11
1323.270391750069
 21
501.6728742058427
 31
0.0
  0
LINE
  5
37F
330
1F
100
AcDbEntity
  8
0
100
AcDbLine
 10
1240.616867041848
 20
501.6728742058427
 30
0.0
 11
1323.270391750069
 21
501.6728742058427
 31
0.0
  0
ARC
  5
380
330
1F
100
AcDbEntity
  8
0
100
AcDbCircle
 10
1052.745573887688
 20
575.1149094845458
 30
0.0
 40
57.11966942967778
100
AcDbArc
 50
337.7625217861409
 51
22.23747821385844
  0
LINE
  5
381
330
1F
100
AcDbEntity
  8
0
  6
CONTINUOUS
 62
     7
100
AcDbLine
 10
1146.916867041858
 20
607.6728742058421
 30
0.0
 11
1126.916867041858
 21
607.6728742058421
 31
0.0
  0
LINE
  5
382
330
1F
100
AcDbEntity
  8
0
  6
CONTINUOUS
 62
     7
100
AcDbLine
 10
1126.916867041858
 20
610.672874205842
 30
0.0
 11
1146.916867041858
 21
610.672874205842
 31
0.0
  0
LINE
  5
383
330
1F
100
AcDbEntity
  8
0
  6
CONTINUOUS
 62
     7
100
AcDbLine
 10
1127.416867041858
 20
610.672874205842
 30
0.0
 11
1127.416867041858
 21
607.6728742058421
 31
0.0
  0
LINE
  5
384
330
1F
100
AcDbEntity
  8
0
  6
CONTINUOUS
 62
     7
100
AcDbLine
 10
1146.416867041858
 20
610.672874205842
 30
0.0
 11
1146.416867041858
 21
607.6728742058421
 31
0.0
  0
LINE
  5
385
330
1F
100
AcDbEntity
  8
0
100
AcDbLine
 10
1106.5715574606
 20
578.6438459426425
 30
0.0
 11
1125.927197619283
 21
580.0591168884492
 31
0.0
  0
LINE
  5
386
330
1F
100
AcDbEntity
  8
0
100
AcDbLine
 10
1106.801749622202
 20
606.7693431808328
 30
0.0
 11
1124.532825270427
 21
606.7693431808328
 31
0.0
  0
ARC
  5
387
330
1F
100
AcDbEntity
  8
0
  6
CONTINUOUS
100
AcDbCircle
 10
820.5655659601179
 20
934.1619346707629
 30
0.0
 40
14.79145401338622
100
AcDbArc
 50
320.9500733785048
 51
47.69901269291698
  0
ARC
  5
388
330
1F
100
AcDbEntity
  8
0
  6
CONTINUOUS
100
AcDbCircle
 10
821.6594098005881
 20
935.332783475629
 30
0.0
 40
19.6644356743196
100
AcDbArc
 50
311.7377797667017
 51
48.28318069360488
  0
ARC
  5
389
330
1F
100
AcDbEntity
  8
0
  6
CONTINUOUS
100
AcDbCircle
 10
832.8922297784956
 20
926.4898019647962
 30
0.0
 40
38.35657218847958
100
AcDbArc
 50
269.6877094220554
 51
28.15496996002959
  0
ARC
  5
38A
330
1F
100
AcDbEntity
  8
0
  6
CONTINUOUS
100
AcDbCircle
 10
832.8922297784956
 20
926.4898019647962
 30
0.0
 40
44.35657218847958
100
AcDbArc
 50
269.744158379718
 51
28.12809001171405
  0
ARC
  5
38B
330
1F
100
AcDbEntity
  8
0
  6
CONTINUOUS
100
AcDbCircle
 10
749.5743242831013
 20
935.332783475629
 30
0.0
 40
19.6644356743196
100
AcDbArc
 50
131.7168193063951
 51
228.2622202332982
  0
ARC
  5
38C
330
1F
100
AcDbEntity
  8
0
  6
CONTINUOUS
100
AcDbCircle
 10
750.6681681235713
 20
934.1619346707629
 30
0.0
 40
14.79145401338622
100
AcDbArc
 50
132.300987307083
 51
219.049926621495
  0
LINE
  5
38D
330
1F
100
AcDbEntity
  8
0
100
AcDbLine
 10
802.2989193674876
 20
929.677948140207
 30
0.0
 11
802.2989193674876
 21
925.6779481402071
 31
0.0
  0
LINE
  5
38E
330
1F
100
AcDbEntity
  8
0
100
AcDbLine
 10
768.9348147162018
 20
929.677948140207
 30
0.0
 11
768.9348147162018
 21
925.6779481402071
 31
0.0
  0
ARC
  5
38F
330
1F
100
AcDbEntity
  8
0
  6
CONTINUOUS
100
AcDbCircle
 10
738.3415043051863
 20
926.4898019647962
 30
0.0
 40
44.35657218847958
100
AcDbArc
 50
151.8719099882859
 51
270.2558416202819
  0
ARC
  5
390
330
1F
100
AcDbEntity
  8
0
  6
CONTINUOUS
100
AcDbCircle
 10
738.3415043051863
 20
926.4898019647962
 30
0.0
 40
38.35657218847958
100
AcDbArc
 50
151.8450300399704
 51
270.3122905779446
  0
ARC
  5
391
330
1F
100
AcDbEntity
  8
0
100
AcDbCircle
 10
333.6391075488573
 20
941.2348160589285
 30
0.0
 40
106.6116003211486
100
AcDbArc
 50
343.0452386242173
 51
16.95476137578272
  0
ARC
  5
392
330
1F
100
AcDbEntity
  8
0
100
AcDbCircle
 10
363.7132748438671
 20
789.390503706133
 30
0.0
 40
74.24670187285427
100
AcDbArc
 50
345.5674138148628
 51
14.43258618513716
  0
ARC
  5
393
330
1F
100
AcDbEntity
  8
0
100
AcDbCircle
 10
513.33112940313
 20
789.390503706133
 30
0.0
 40
51.17711403260225
100
AcDbArc
 50
158.8019222471191
 51
201.1980777528808
  0
ARC
  5
394
330
1F
100
AcDbEntity
  8
0
100
AcDbCircle
 10
494.0325768495531
 20
699.9894751052828
 30
0.0
 40
30.75581818224811
100
AcDbArc
 50
157.5050578832839
 51
202.494942116716
  0
ARC
  5
395
330
1F
100
AcDbEntity
  8
0
100
AcDbCircle
 10
333.6391075488573
 20
657.1325342692888
 30
0.0
 40
106.6116003211486
100
AcDbArc
 50
343.0452386242173
 51
16.95476137578272
  0
LINE
  5
396
330
1F
100
AcDbEntity
  8
0
100
AcDbLine
 10
442.000834788676
 20
655.4338303157
 30
0.0
 11
464.2932183720549
 21
654.8317604911297
 31
0.0
  0
LINE
  5
397
330
1F
100
AcDbEntity
  8
0
100
AcDbLine
 10
445.0970855764244
 20
629.9630848175219
 30
0.0
 11
463.0364636494123
 21
630.4348456143469
 31
0.0
  0
LINE
  5
398
330
1F
100
AcDbEntity
  8
0
100
AcDbLine
 10
463.9806383732065
 20
629.0195746685403
 30
0.0
 11
446.9854350240275
 21
627.6043037227335
 31
0.0
  0
LINE
  5
399
330
1F
100
AcDbEntity
  8
0
100
AcDbLine
 10
462.4857209808761
 20
656.6379699648422
 30
0.0
 11
442.000834788676
 21
660.2504118016094
 31
0.0
  0
ARC
  5
39A
330
1F
100
AcDbEntity
  8
0
100
AcDbCircle
 10
380.3724259271766
 20
733.1727559999634
 30
0.0
 40
59.25027723911768
100
AcDbArc
 50
338.8106919803579
 51
21.18930801964204
  0
LINE
  5
39B
330
1F
100
AcDbEntity
  8
0
100
AcDbLine
 10
441.1039582262747
 20
729.6278148346904
 30
0.0
 11
463.4914046987906
 21
735.5151025467224
 31
0.0
  0
LINE
  5
39C
330
1F
100
AcDbEntity
  8
0
100
AcDbLine
 10
440.2269884938359
 20
701.5637869262048
 30
0.0
 11
461.6676358069598
 21
701.5637869262048
 31
0.0
  0
LINE
  5
39D
330
1F
100
AcDbEntity
  8
0
100
AcDbLine
 10
460.8879840342269
 20
698.8368879781395
 30
0.0
 11
437.8880137353771
 21
699.6160068681605
 31
0.0
  0
LINE
  5
39E
330
1F
100
AcDbEntity
  8
0
100
AcDbLine
 10
439.5547830581636
 20
761.0536691671935
 30
0.0
 11
461.7758014337741
 21
764.0143941951686
 31
0.0
  0
LINE
  5
39F
330
1F
100
AcDbEntity
  8
0
100
AcDbLine
 10
460.2943950246626
 20
761.0536691671935
 30
0.0
 11
439.0609809217931
 21
759.5733123755421
 31
0.0
  0
ARC
  5
3A0
330
1F
100
AcDbEntity
  8
0
100
AcDbCircle
 10
418.6404289605052
 20
762.7370029271891
 30
0.0
 40
18.83062952425546
100
AcDbArc
 50
334.3603398614806
 51
25.63966013851934
  0
LINE
  5
3A1
330
1F
100
AcDbEntity
  8
0
100
AcDbLine
 10
463.4914046987906
 20
735.5151025467224
 30
0.0
 11
441.8894809586199
 21
734.3376518711196
 31
0.0
  0
ARC
  5
3A2
330
1F
100
AcDbEntity
  8
0
100
AcDbCircle
 10
477.8557724754501
 20
762.7370029271891
 30
0.0
 40
14.70319572620801
100
AcDbArc
 50
146.3458272490086
 51
213.6541727509913
  0
ARC
  5
3A3
330
1F
100
AcDbEntity
  8
0
100
AcDbCircle
 10
505.1984665374038
 20
833.8084576549649
 30
0.0
 40
47.3092865871033
100
AcDbArc
 50
146.7886702848471
 51
213.2113297151528
  0
LINE
  5
3A4
330
1F
100
AcDbEntity
  8
0
100
AcDbLine
 10
459.7970936408382
 20
787.2607648186389
 30
0.0
 11
439.5512838107097
 21
788.2476731612972
 31
0.0
  0
LINE
  5
3A5
330
1F
100
AcDbEntity
  8
0
100
AcDbLine
 10
440.5388880834506
 20
791.2083867446003
 30
0.0
 11
459.3033109447351
 21
788.2476731612972
 31
0.0
  0
LINE
  5
3A6
330
1F
100
AcDbEntity
  8
0
100
AcDbLine
 10
456.7748519367159
 20
838.3038272730358
 30
0.0
 11
441.2543481056927
 21
838.3038272730358
 31
0.0
  0
LINE
  5
3A7
330
1F
100
AcDbEntity
  8
0
100
AcDbLine
 10
441.2543481056927
 20
838.3038272730358
 30
0.0
 11
456.7748519367159
 21
835.7790183312866
 31
0.0
  0
ARC
  5
3A8
330
1F
100
AcDbEntity
  8
0
100
AcDbCircle
 10
396.6916311943496
 20
895.489514851771
 30
0.0
 40
41.59279291423044
100
AcDbArc
 50
339.3683311470855
 51
20.63166885291452
  0
ARC
  5
3A9
330
1F
100
AcDbEntity
  8
0
100
AcDbCircle
 10
488.8539447878574
 20
895.4895148517715
 30
0.0
 40
27.47268131795497
100
AcDbArc
 50
147.7604243754351
 51
212.2395756245648
  0
LINE
  5
3AA
330
1F
100
AcDbEntity
  8
0
100
AcDbLine
 10
463.9806383732065
 20
913.1218564581798
 30
0.0
 11
446.9854350240275
 21
911.7065855123732
 31
0.0
  0
LINE
  5
3AB
330
1F
100
AcDbEntity
  8
0
100
AcDbLine
 10
440.6125666825974
 20
892.141004302843
 30
0.0
 11
458.343642330823
 21
892.141004302843
 31
0.0
  0
LINE
  5
3AC
330
1F
100
AcDbEntity
  8
0
100
AcDbLine
 10
445.0970855764244
 20
914.0653666071616
 30
0.0
 11
463.0364636494123
 21
914.5371274039865
 31
0.0
  0
ARC
  5
3AD
330
1F
100
AcDbEntity
  8
0
100
AcDbCircle
 10
1183.331129403137
 20
789.390503706133
 30
0.0
 40
51.17711403260225
100
AcDbArc
 50
158.8019222471191
 51
201.1980777528808
  0
ARC
  5
3AE
330
1F
100
AcDbEntity
  8
0
100
AcDbCircle
 10
1033.713274843874
 20
789.390503706133
 30
0.0
 40
74.24670187285427
100
AcDbArc
 50
345.5674138148628
 51
14.43258618513716
  0
POLYLINE
  5
3AF
330
1F
100
AcDbEntity
  8
0
  6
CONTINUOUS
100
AcDb2dPolyline
 66
     1
 10
0.0
 20
0.0
 30
0.0
  0
VERTEX
  5
7C0
330
3AF
100
AcDbEntity
  8
0
  6
CONTINUOUS
100
AcDbVertex
100
AcDb2dVertex
 10
831.6197446185251
 20
789.3336527023437
 30
0.0
 42
-0.624487388012175
  0
VERTEX
  5
7C1
330
3AF
100
AcDbEntity
  8
0
  6
CONTINUOUS
100
AcDbVertex
100
AcDb2dVertex
 10
835.8467431346944
 20
805.4543966109431
 30
0.0
 42
-0.5712699294635224
  0
VERTEX
  5
7C2
330
3AF
100
AcDbEntity
  8
0
  6
CONTINUOUS
100
AcDbVertex
100
AcDb2dVertex
 10
856.6908527815467
 20
782.01158745706
 30
0.0
 42
-0.1992749000703595
  0
VERTEX
  5
7C3
330
3AF
100
AcDbEntity
  8
0
  6
CONTINUOUS
100
AcDbVertex
100
AcDb2dVertex
 10
846.0318504841342
 20
768.7386962730201
 30
0.0
 42
-0.1922899288213652
  0
VERTEX
  5
7C4
330
3AF
100
AcDbEntity
  8
0
  6
CONTINUOUS
100
AcDbVertex
100
AcDb2dVertex
 10
825.0816586747678
 20
766.7480869151003
 30
0.0
 42
-0.1435180749715141
  0
VERTEX
  5
7C5
330
3AF
100
AcDbEntity
  8
0
  6
CONTINUOUS
100
AcDbVertex
100
AcDb2dVertex
 10
806.130821216626
 20
779.007061984378
 30
0.0
 42
-0.1601386182095308
  0
VERTEX
  5
7C6
330
3AF
100
AcDbEntity
  8
0
  6
CONTINUOUS
100
AcDbVertex
100
AcDb2dVertex
 10
792.0913159245319
 20
811.9337497979103
 30
0.0
 42
-0.1601386182095308
  0
SEQEND
  5
7C7
330
3AF
100
AcDbEntity
  8
0
  6
CONTINUOUS
  0
POLYLINE
  5
3B0
330
1F
100
AcDbEntity
  8
0
  6
CONTINUOUS
100
AcDb2dPolyline
 66
     1
 10
0.0
 20
0.0
 30
0.0
  0
VERTEX
  5
7C8
330
3B0
100
AcDbEntity
  8
0
  6
CONTINUOUS
100
AcDbVertex
100
AcDb2dVertex
 10
831.6197446185251
 20
789.3336527023437
 30
0.0
  0
VERTEX
  5
7C9
330
3B0
100
AcDbEntity
  8
0
  6
CONTINUOUS
100
AcDbVertex
100
AcDb2dVertex
 10
832.3716218353801
 20
790.8246934616262
 30
0.0
 42
-0.5016049534703276
  0
VERTEX
  5
7CA
330
3B0
100
AcDbEntity
  8
0
  6
CONTINUOUS
100
AcDbVertex
100
AcDb2dVertex
 10
837.0168680909847
 20
799.5695792222249
 30
0.0
 42
-0.5731451722580876
  0
VERTEX
  5
7CB
330
3B0
100
AcDbEntity
  8
0
  6
CONTINUOUS
100
AcDbVertex
100
AcDb2dVertex
 10
850.9536754496075
 20
783.7708262662353
 30
0.0
 42
-0.1994211041236551
  0
VERTEX
  5
7CC
330
3B0
100
AcDbEntity
  8
0
  6
CONTINUOUS
100
AcDbVertex
100
AcDb2dVertex
 10
843.2184466108301
 20
774.0389651621816
 30
0.0
 42
-0.1912321573076029
  0
VERTEX
  5
7CD
330
3B0
100
AcDbEntity
  8
0
  6
CONTINUOUS
100
AcDbVertex
100
AcDb2dVertex
 10
826.7807774445318
 20
772.502490523504
 30
0.0
 42
-0.143630861908326
  0
VERTEX
  5
7CE
330
3B0
100
AcDbEntity
  8
0
  6
CONTINUOUS
100
AcDbVertex
100
AcDb2dVertex
 10
810.657430141946
 20
782.9454202109299
 30
0.0
 42
-0.1577079741972947
  0
VERTEX
  5
7CF
330
3B0
100
AcDbEntity
  8
0
  6
CONTINUOUS
100
AcDbVertex
100
AcDb2dVertex
 10
798.1158813964357
 20
811.9337497979103
 30
0.0
 42
-0.1577079741972947
  0
SEQEND
  5
7D0
330
3B0
100
AcDbEntity
  8
0
  6
CONTINUOUS
  0
POLYLINE
  5
3B1
330
1F
100
AcDbEntity
  8
0
  6
CONTINUOUS
100
AcDb2dPolyline
 66
     1
 10
0.0
 20
0.0
 30
0.0
  0
VERTEX
  5
7D1
330
3B1
100
AcDbEntity
  8
0
  6
CONTINUOUS
100
AcDbVertex
100
AcDb2dVertex
 10
739.6139894651569
 20
789.3336527023437
 30
0.0
  0
VERTEX
  5
7D2
330
3B1
100
AcDbEntity
  8
0
  6
CONTINUOUS
100
AcDbVertex
100
AcDb2dVertex
 10
738.8621122483091
 20
790.8246934616262
 30
0.0
 42
0.5016049534703276
  0
VERTEX
  5
7D3
330
3B1
100
AcDbEntity
  8
0
  6
CONTINUOUS
100
AcDbVertex
100
AcDb2dVertex
 10
734.2168659926974
 20
799.5695792222249
 30
0.0
 42
0.5731451722580876
  0
VERTEX
  5
7D4
330
3B1
100
AcDbEntity
  8
0
  6
CONTINUOUS
100
AcDbVertex
100
AcDb2dVertex
 10
720.2800586340745
 20
783.7708262662353
 30
0.0
 42
0.1994211041236551
  0
VERTEX
  5
7D5
330
3B1
100
AcDbEntity
  8
0
  6
CONTINUOUS
100
AcDbVertex
100
AcDb2dVertex
 10
728.0152874728591
 20
774.0389651621816
 30
0.0
 42
0.1912321573076029
  0
VERTEX
  5
7D6
330
3B1
100
AcDbEntity
  8
0
  6
CONTINUOUS
100
AcDbVertex
100
AcDb2dVertex
 10
744.4529566391574
 20
772.502490523504
 30
0.0
 42
0.143630861908326
  0
VERTEX
  5
7D7
330
3B1
100
AcDbEntity
  8
0
  6
CONTINUOUS
100
AcDbVertex
100
AcDb2dVertex
 10
760.5763039417434
 20
782.9454202109299
 30
0.0
 42
0.1577079741972947
  0
VERTEX
  5
7D8
330
3B1
100
AcDbEntity
  8
0
  6
CONTINUOUS
100
AcDbVertex
100
AcDb2dVertex
 10
773.1178526872463
 20
811.9337497979103
 30
0.0
 42
0.1577079741972947
  0
SEQEND
  5
7D9
330
3B1
100
AcDbEntity
  8
0
  6
CONTINUOUS
  0
POLYLINE
  5
3B2
330
1F
100
AcDbEntity
  8
0
  6
CONTINUOUS
100
AcDb2dPolyline
 66
     1
 10
0.0
 20
0.0
 30
0.0
  0
VERTEX
  5
7DA
330
3B2
100
AcDbEntity
  8
0
  6
CONTINUOUS
100
AcDbVertex
100
AcDb2dVertex
 10
739.6139894651569
 20
789.3336527023437
 30
0.0
 42
0.624487388012175
  0
VERTEX
  5
7DB
330
3B2
100
AcDbEntity
  8
0
  6
CONTINUOUS
100
AcDbVertex
100
AcDb2dVertex
 10
735.3869909489949
 20
805.4543966109431
 30
0.0
 42
0.5712699294635224
  0
VERTEX
  5
7DC
330
3B2
100
AcDbEntity
  8
0
  6
CONTINUOUS
100
AcDbVertex
100
AcDb2dVertex
 10
714.5428813021426
 20
782.01158745706
 30
0.0
 42
0.1992749000703595
  0
VERTEX
  5
7DD
330
3B2
100
AcDbEntity
  8
0
  6
CONTINUOUS
100
AcDbVertex
100
AcDb2dVertex
 10
725.2018835995549
 20
768.7386962730201
 30
0.0
 42
0.1922899288213652
  0
VERTEX
  5
7DE
330
3B2
100
AcDbEntity
  8
0
  6
CONTINUOUS
100
AcDbVertex
100
AcDb2dVertex
 10
746.1520754089142
 20
766.7480869151003
 30
0.0
 42
0.1435180749715141
  0
VERTEX
  5
7DF
330
3B2
100
AcDbEntity
  8
0
  6
CONTINUOUS
100
AcDbVertex
100
AcDb2dVertex
 10
765.1029128670561
 20
779.007061984378
 30
0.0
 42
0.1601386182095308
  0
VERTEX
  5
7E0
330
3B2
100
AcDbEntity
  8
0
  6
CONTINUOUS
100
AcDbVertex
100
AcDb2dVertex
 10
779.1424181591501
 20
811.9337497979103
 30
0.0
 42
0.1601386182095308
  0
SEQEND
  5
7E1
330
3B2
100
AcDbEntity
  8
0
  6
CONTINUOUS
  0
ARC
  5
3B3
330
1F
100
AcDbEntity
  8
0
100
AcDbCircle
 10
1003.639107548864
 20
657.1325342692888
 30
0.0
 40
106.6116003211486
100
AcDbArc
 50
343.0452386242173
 51
16.95476137578272
  0
LINE
  5
3B4
330
1F
100
AcDbEntity
  8
0
  6
CONTINUOUS
 62
     7
100
AcDbLine
 10
1126.916867041858
 20
684.6728742058416
 30
0.0
 11
1146.916867041858
 21
684.6728742058416
 31
0.0
  0
LINE
  5
3B5
330
1F
100
AcDbEntity
  8
0
  6
CONTINUOUS
 62
     7
100
AcDbLine
 10
1127.916867041858
 20
686.6728742058415
 30
0.0
 11
1145.916867041858
 21
686.6728742058415
 31
0.0
  0
ARC
  5
3B6
330
1F
100
AcDbEntity
  8
0
  6
CONTINUOUS
 62
     7
100
AcDbCircle
 10
1127.916867041858
 20
685.1728742058416
 30
0.0
 40
0.5
100
AcDbArc
 50
180.0
 51
270.0
  0
ARC
  5
3B7
330
1F
100
AcDbEntity
  8
0
  6
CONTINUOUS
 62
     7
100
AcDbCircle
 10
1127.916867041858
 20
686.1728742058415
 30
0.0
 40
0.5
100
AcDbArc
 50
90.0
 51
180.0
  0
LINE
  5
3B8
330
1F
100
AcDbEntity
  8
0
  6
CONTINUOUS
 62
     7
100
AcDbLine
 10
1127.416867041858
 20
686.1728742058415
 30
0.0
 11
1127.416867041858
 21
685.1728742058416
 31
0.0
  0
ARC
  5
3B9
330
1F
100
AcDbEntity
  8
0
  6
CONTINUOUS
 62
     7
100
AcDbCircle
 10
1145.916867041858
 20
685.1728742058416
 30
0.0
 40
0.5
100
AcDbArc
 50
270.0
 51
0.0
  0
ARC
  5
3BA
330
1F
100
AcDbEntity
  8
0
  6
CONTINUOUS
 62
     7
100
AcDbCircle
 10
1145.916867041858
 20
686.1728742058415
 30
0.0
 40
0.5
100
AcDbArc
 50
0.0
 51
90.0
  0
LINE
  5
3BB
330
1F
100
AcDbEntity
  8
0
  6
CONTINUOUS
 62
     7
100
AcDbLine
 10
1146.416867041858
 20
686.1728742058415
 30
0.0
 11
1146.416867041858
 21
685.1728742058416
 31
0.0
  0
ARC
  5
3BC
330
1F
100
AcDbEntity
  8
0
100
AcDbCircle
 10
1050.372425927184
 20
733.1727559999634
 30
0.0
 40
59.25027723911768
100
AcDbArc
 50
338.8106919803579
 51
21.18930801964204
  0
LINE
  5
3BD
330
1F
100
AcDbEntity
  8
0
100
AcDbLine
 10
1111.103958226282
 20
729.6278148346904
 30
0.0
 11
1133.491404698798
 21
735.5151025467224
 31
0.0
  0
ARC
  5
3BE
330
1F
100
AcDbEntity
  8
0
100
AcDbCircle
 10
1147.855772475457
 20
762.7370029271891
 30
0.0
 40
14.70319572620801
100
AcDbArc
 50
146.3458272490086
 51
213.6541727509913
  0
ARC
  5
3BF
330
1F
100
AcDbEntity
  8
0
100
AcDbCircle
 10
1088.640428960512
 20
762.7370029271891
 30
0.0
 40
18.83062952425546
100
AcDbArc
 50
334.3603398614806
 51
25.63966013851934
  0
LINE
  5
3C0
330
1F
100
AcDbEntity
  8
0
100
AcDbLine
 10
1133.491404698798
 20
735.5151025467224
 30
0.0
 11
1111.889480958627
 21
734.3376518711196
 31
0.0
  0
LINE
  5
3C1
330
1F
100
AcDbEntity
  8
0
100
AcDbLine
 10
1130.294395024669
 20
761.0536691671935
 30
0.0
 11
1109.0609809218
 21
759.5733123755421
 31
0.0
  0
LINE
  5
3C2
330
1F
100
AcDbEntity
  8
0
100
AcDbLine
 10
1109.55478305817
 20
761.0536691671935
 30
0.0
 11
1131.775801433781
 21
764.0143941951686
 31
0.0
  0
ARC
  5
3C3
330
1F
100
AcDbEntity
  8
0
100
AcDbCircle
 10
1175.198466537411
 20
833.8084576549649
 30
0.0
 40
47.3092865871033
100
AcDbArc
 50
146.7886702848471
 51
213.2113297151528
  0
POLYLINE
  5
3C4
330
1F
100
AcDbEntity
  8
0
  6
CONTINUOUS
100
AcDb2dPolyline
 66
     1
 10
0.0
 20
0.0
 30
0.0
  0
VERTEX
  5
7E2
330
3C4
100
AcDbEntity
  8
0
  6
CONTINUOUS
100
AcDbVertex
100
AcDb2dVertex
 10
852.1518241843805
 20
859.3602271929038
 30
0.0
  0
VERTEX
  5
7E3
330
3C4
100
AcDbEntity
  8
0
  6
CONTINUOUS
100
AcDbVertex
100
AcDb2dVertex
 10
851.9795179068241
 20
857.6992538512207
 30
0.0
 42
0.5016049534703276
  0
VERTEX
  5
7E4
330
3C4
100
AcDbEntity
  8
0
  6
CONTINUOUS
100
AcDbVertex
100
AcDb2dVertex
 10
851.1671811786582
 20
847.8305432575705
 30
0.0
 42
0.5731451722580876
  0
VERTEX
  5
7E5
330
3C4
100
AcDbEntity
  8
0
  6
CONTINUOUS
100
AcDbVertex
100
AcDb2dVertex
 10
871.4285372121084
 20
853.6022540959027
 30
0.0
 42
0.1994211041236551
  0
VERTEX
  5
7E6
330
3C4
100
AcDbEntity
  8
0
  6
CONTINUOUS
100
AcDbVertex
100
AcDb2dVertex
 10
870.1730697833845
 20
865.9702243122437
 30
0.0
 42
0.1912321573076029
  0
VERTEX
  5
7E7
330
3C4
100
AcDbEntity
  8
0
  6
CONTINUOUS
100
AcDbVertex
100
AcDb2dVertex
 10
857.167589796707
 20
876.1395513426887
 30
0.0
 42
0.143630861908326
  0
VERTEX
  5
7E8
330
3C4
100
AcDbEntity
  8
0
  6
CONTINUOUS
100
AcDbVertex
100
AcDb2dVertex
 10
837.9579517403108
 20
876.0563982396137
 30
0.0
 42
0.2016233873508618
  0
VERTEX
  5
7E9
330
3C4
100
AcDbEntity
  8
0
  6
CONTINUOUS
100
AcDbVertex
100
AcDb2dVertex
 10
806.9637202017329
 20
851.1396930521485
 30
0.0
 42
0.0544492341104313
  0
VERTEX
  5
7EA
330
3C4
100
AcDbEntity
  8
0
  6
CONTINUOUS
100
AcDbVertex
100
AcDb2dVertex
 10
800.7377930690635
 20
836.4117001926887
 30
0.0
 42
0.056122523359716
  0
SEQEND
  5
7EB
330
3C4
100
AcDbEntity
  8
0
  6
CONTINUOUS
  0
POLYLINE
  5
3C5
330
1F
100
AcDbEntity
  8
0
  6
CONTINUOUS
100
AcDb2dPolyline
 66
     1
 10
0.0
 20
0.0
 30
0.0
  0
VERTEX
  5
7EC
330
3C5
100
AcDbEntity
  8
0
  6
CONTINUOUS
100
AcDbVertex
100
AcDb2dVertex
 10
852.1518241843805
 20
859.3602271929038
 30
0.0
 42
0.6244873880121949
  0
VERTEX
  5
7ED
330
3C5
100
AcDbEntity
  8
0
  6
CONTINUOUS
100
AcDbVertex
100
AcDb2dVertex
 10
847.0045967457773
 20
843.5092981880279
 30
0.0
 42
0.5712699294635224
  0
VERTEX
  5
7EE
330
3C5
100
AcDbEntity
  8
0
  6
CONTINUOUS
100
AcDbVertex
100
AcDb2dVertex
 10
877.2073338963382
 20
851.9849619738096
 30
0.0
 42
0.1992749000703595
  0
VERTEX
  5
7EF
330
3C5
100
AcDbEntity
  8
0
  6
CONTINUOUS
100
AcDbVertex
100
AcDb2dVertex
 10
875.4031108108174
 20
868.9121220846272
 30
0.0
 42
0.1922899288213652
  0
VERTEX
  5
7F0
330
3C5
100
AcDbEntity
  8
0
  6
CONTINUOUS
100
AcDbVertex
100
AcDb2dVertex
 10
858.8447853339093
 20
881.9003829330211
 30
0.0
 42
0.1435180749715141
  0
VERTEX
  5
7F1
330
3C5
100
AcDbEntity
  8
0
  6
CONTINUOUS
100
AcDbVertex
100
AcDb2dVertex
 10
836.2746832502452
 20
881.8155180572393
 30
0.0
 42
0.2013051193684176
  0
VERTEX
  5
7F2
330
3C5
100
AcDbEntity
  8
0
  6
CONTINUOUS
100
AcDbVertex
100
AcDb2dVertex
 10
801.7047555893514
 20
854.0284072213324
 30
0.0
 42
0.0525451820212675
  0
VERTEX
  5
7F3
330
3C5
100
AcDbEntity
  8
0
  6
CONTINUOUS
100
AcDbVertex
100
AcDb2dVertex
 10
795.1184263983959
 20
838.5759105246924
 30
0.0
  0
SEQEND
  5
7F4
330
3C5
100
AcDbEntity
  8
0
  6
CONTINUOUS
  0
LINE
  5
3C6
330
1F
100
AcDbEntity
  8
0
  6
CONTINUOUS
100
AcDbLine
 10
791.616867041841
 20
825.9337497979103
 30
0.0
 11
791.616867041841
 21
915.6779481402072
 31
0.0
  0
POLYLINE
  5
3C7
330
1F
100
AcDbEntity
  8
0
  6
CONTINUOUS
100
AcDb2dPolyline
 66
     1
 10
0.0
 20
0.0
 30
0.0
  0
VERTEX
  5
7F5
330
3C7
100
AcDbEntity
  8
0
  6
CONTINUOUS
100
AcDbVertex
100
AcDb2dVertex
 10
719.0819098993088
 20
859.3602271929038
 30
0.0
  0
VERTEX
  5
7F6
330
3C7
100
AcDbEntity
  8
0
  6
CONTINUOUS
100
AcDbVertex
100
AcDb2dVertex
 10
719.2542161768578
 20
857.6992538512207
 30
0.0
 42
-0.5016049534703276
  0
VERTEX
  5
7F7
330
3C7
100
AcDbEntity
  8
0
  6
CONTINUOUS
100
AcDbVertex
100
AcDb2dVertex
 10
720.0665529050311
 20
847.8305432575705
 30
0.0
 42
-0.5731451722580876
  0
VERTEX
  5
7F8
330
3C7
100
AcDbEntity
  8
0
  6
CONTINUOUS
100
AcDbVertex
100
AcDb2dVertex
 10
699.8051968715735
 20
853.6022540959027
 30
0.0
 42
-0.1994211041236551
  0
VERTEX
  5
7F9
330
3C7
100
AcDbEntity
  8
0
  6
CONTINUOUS
100
AcDbVertex
100
AcDb2dVertex
 10
701.0606643003048
 20
865.9702243122437
 30
0.0
 42
-0.1912321573076029
  0
VERTEX
  5
7FA
330
3C7
100
AcDbEntity
  8
0
  6
CONTINUOUS
100
AcDbVertex
100
AcDb2dVertex
 10
714.066144286975
 20
876.1395513426887
 30
0.0
 42
-0.143630861908326
  0
VERTEX
  5
7FB
330
3C7
100
AcDbEntity
  8
0
  6
CONTINUOUS
100
AcDbVertex
100
AcDb2dVertex
 10
733.2757823433712
 20
876.0563982396137
 30
0.0
 42
-0.2016233873508618
  0
VERTEX
  5
7FC
330
3C7
100
AcDbEntity
  8
0
  6
CONTINUOUS
100
AcDbVertex
100
AcDb2dVertex
 10
764.2700138819564
 20
851.1396930521485
 30
0.0
 42
-0.0544492341104313
  0
VERTEX
  5
7FD
330
3C7
100
AcDbEntity
  8
0
  6
CONTINUOUS
100
AcDbVertex
100
AcDb2dVertex
 10
770.4959410146184
 20
836.4117001926887
 30
0.0
 42
-0.056122523359716
  0
SEQEND
  5
7FE
330
3C7
100
AcDbEntity
  8
0
  6
CONTINUOUS
  0
LINE
  5
3C8
330
1F
100
AcDbEntity
  8
0
  6
CONTINUOUS
100
AcDbLine
 10
779.616867041841
 20
825.9337497979103
 30
0.0
 11
779.616867041841
 21
915.6779481402072
 31
0.0
  0
POLYLINE
  5
3C9
330
1F
100
AcDbEntity
  8
0
  6
CONTINUOUS
100
AcDb2dPolyline
 66
     1
 10
0.0
 20
0.0
 30
0.0
  0
VERTEX
  5
7FF
330
3C9
100
AcDbEntity
  8
0
  6
CONTINUOUS
100
AcDbVertex
100
AcDb2dVertex
 10
719.0819098993088
 20
859.3602271929038
 30
0.0
 42
-0.6244873880121949
  0
VERTEX
  5
800
330
3C9
100
AcDbEntity
  8
0
  6
CONTINUOUS
100
AcDbVertex
100
AcDb2dVertex
 10
724.2291373379121
 20
843.5092981880279
 30
0.0
 42
-0.5712699294635224
  0
VERTEX
  5
801
330
3C9
100
AcDbEntity
  8
0
  6
CONTINUOUS
100
AcDbVertex
100
AcDb2dVertex
 10
694.0264001873511
 20
851.9849619738096
 30
0.0
 42
-0.1992749000703595
  0
VERTEX
  5
802
330
3C9
100
AcDbEntity
  8
0
  6
CONTINUOUS
100
AcDbVertex
100
AcDb2dVertex
 10
695.8306232728719
 20
868.9121220846272
 30
0.0
 42
-0.1922899288213652
  0
VERTEX
  5
803
330
3C9
100
AcDbEntity
  8
0
  6
CONTINUOUS
100
AcDbVertex
100
AcDb2dVertex
 10
712.3889487497799
 20
881.9003829330211
 30
0.0
 42
-0.1435180749715141
  0
VERTEX
  5
804
330
3C9
100
AcDbEntity
  8
0
  6
CONTINUOUS
100
AcDbVertex
100
AcDb2dVertex
 10
734.9590508334367
 20
881.8155180572393
 30
0.0
 42
-0.2013051193684176
  0
VERTEX
  5
805
330
3C9
100
AcDbEntity
  8
0
  6
CONTINUOUS
100
AcDbVertex
100
AcDb2dVertex
 10
769.5289784943379
 20
854.0284072213324
 30
0.0
 42
-0.0525451820212675
  0
VERTEX
  5
806
330
3C9
100
AcDbEntity
  8
0
  6
CONTINUOUS
100
AcDbVertex
100
AcDb2dVertex
 10
776.1153076852933
 20
838.5759105246924
 30
0.0
  0
SEQEND
  5
807
330
3C9
100
AcDbEntity
  8
0
  6
CONTINUOUS
  0
LINE
  5
3CA
330
1F
100
AcDbEntity
  8
0
100
AcDbLine
 10
768.9348147162018
 20
811.9337497979103
 30
0.0
 11
802.2989193674876
 21
811.9337497979103
 31
0.0
  0
LINE
  5
3CB
330
1F
100
AcDbEntity
  8
0
100
AcDbLine
 10
768.9348147162018
 20
815.9337497979104
 30
0.0
 11
802.2989193674876
 21
815.9337497979104
 31
0.0
  0
LINE
  5
3CC
330
1F
100
AcDbEntity
  8
0
100
AcDbLine
 10
768.9348147162018
 20
821.9337497979111
 30
0.0
 11
802.2989193674876
 21
821.9337497979111
 31
0.0
  0
LINE
  5
3CD
330
1F
100
AcDbEntity
  8
0
100
AcDbLine
 10
802.2989193674876
 20
825.9337497979103
 30
0.0
 11
768.9348147162018
 21
825.9337497979103
 31
0.0
  0
LINE
  5
3CE
330
1F
100
AcDbEntity
  8
0
100
AcDbLine
 10
768.9348147162018
 20
825.9337497979103
 30
0.0
 11
768.9348147162018
 21
821.9337497979102
 31
0.0
  0
LINE
  5
3CF
330
1F
100
AcDbEntity
  8
0
100
AcDbLine
 10
768.9348147162018
 20
815.9337497979104
 30
0.0
 11
768.9348147162018
 21
811.9337497979103
 31
0.0
  0
ARC
  5
3D0
330
1F
100
AcDbEntity
  8
0
100
AcDbCircle
 10
768.9348147162018
 20
818.9337497979103
 30
0.0
 40
3.000000000000056
100
AcDbArc
 50
90.0
 51
270.0
  0
POLYLINE
  5
3D1
330
1F
100
AcDbEntity
  8
0
  6
CONTINUOUS
100
AcDb2dPolyline
 66
     1
 10
0.0
 20
0.0
 30
0.0
  0
VERTEX
  5
808
330
3D1
100
AcDbEntity
  8
0
  6
CONTINUOUS
100
AcDbVertex
100
AcDb2dVertex
 10
772.6910377271196
 20
825.9337497979103
 30
0.0
 42
0.0363948171192986
  0
VERTEX
  5
809
330
3D1
100
AcDbEntity
  8
0
  6
CONTINUOUS
100
AcDbVertex
100
AcDb2dVertex
 10
770.4959410146184
 20
836.4117001926887
 30
0.0
  0
SEQEND
  5
80A
330
3D1
100
AcDbEntity
  8
0
  6
CONTINUOUS
  0
LINE
  5
3D2
330
1F
100
AcDbEntity
  8
0
100
AcDbLine
 10
802.2989193674876
 20
825.9337497979103
 30
0.0
 11
802.2989193674876
 21
821.9337497979102
 31
0.0
  0
LINE
  5
3D3
330
1F
100
AcDbEntity
  8
0
100
AcDbLine
 10
802.2989193674876
 20
815.9337497979104
 30
0.0
 11
802.2989193674876
 21
811.9337497979103
 31
0.0
  0
ARC
  5
3D4
330
1F
100
AcDbEntity
  8
0
100
AcDbCircle
 10
802.2989193674876
 20
818.9337497979103
 30
0.0
 40
3.000000000000056
100
AcDbArc
 50
270.0
 51
90.0
  0
POLYLINE
  5
3D5
330
1F
100
AcDbEntity
  8
0
  6
CONTINUOUS
100
AcDb2dPolyline
 66
     1
 10
0.0
 20
0.0
 30
0.0
  0
VERTEX
  5
80B
330
3D5
100
AcDbEntity
  8
0
  6
CONTINUOUS
100
AcDbVertex
100
AcDb2dVertex
 10
798.5426963565696
 20
825.9337497979103
 30
0.0
 42
-0.0363948171192986
  0
VERTEX
  5
80C
330
3D5
100
AcDbEntity
  8
0
  6
CONTINUOUS
100
AcDbVertex
100
AcDb2dVertex
 10
800.7377930690635
 20
836.4117001926887
 30
0.0
  0
SEQEND
  5
80D
330
3D5
100
AcDbEntity
  8
0
  6
CONTINUOUS
  0
POLYLINE
  5
3D6
330
1F
100
AcDbEntity
  8
0
  6
CONTINUOUS
100
AcDb2dPolyline
 66
     1
 10
0.0
 20
0.0
 30
0.0
  0
VERTEX
  5
80E
330
3D6
100
AcDbEntity
  8
0
  6
CONTINUOUS
100
AcDbVertex
100
AcDb2dVertex
 10
792.4927478386016
 20
825.9337497979103
 30
0.0
 42
-0.0406020746902253
  0
VERTEX
  5
80F
330
3D6
100
AcDbEntity
  8
0
  6
CONTINUOUS
100
AcDbVertex
100
AcDb2dVertex
 10
795.1184263983959
 20
838.5759105246924
 30
0.0
  0
SEQEND
  5
810
330
3D6
100
AcDbEntity
  8
0
  6
CONTINUOUS
  0
POLYLINE
  5
3D7
330
1F
100
AcDbEntity
  8
0
  6
CONTINUOUS
100
AcDb2dPolyline
 66
     1
 10
0.0
 20
0.0
 30
0.0
  0
VERTEX
  5
811
330
3D7
100
AcDbEntity
  8
0
  6
CONTINUOUS
100
AcDbVertex
100
AcDb2dVertex
 10
778.7409862450804
 20
825.9337497979103
 30
0.0
 42
0.0406020746902253
  0
VERTEX
  5
812
330
3D7
100
AcDbEntity
  8
0
  6
CONTINUOUS
100
AcDbVertex
100
AcDb2dVertex
 10
776.1153076852933
 20
838.5759105246924
 30
0.0
  0
SEQEND
  5
813
330
3D7
100
AcDbEntity
  8
0
  6
CONTINUOUS
  0
LINE
  5
3D8
330
1F
100
AcDbEntity
  8
0
100
AcDbLine
 10
1129.797093640845
 20
787.2607648186389
 30
0.0
 11
1109.551283810717
 21
788.2476731612972
 31
0.0
  0
LINE
  5
3D9
330
1F
100
AcDbEntity
  8
0
100
AcDbLine
 10
1110.538888083458
 20
791.2083867446003
 30
0.0
 11
1129.303310944742
 21
788.2476731612972
 31
0.0
  0
LINE
  5
3DA
330
1F
100
AcDbEntity
  8
0
100
AcDbLine
 10
1126.774851936723
 20
838.3038272730358
 30
0.0
 11
1111.2543481057
 21
838.3038272730358
 31
0.0
  0
LINE
  5
3DB
330
1F
100
AcDbEntity
  8
0
100
AcDbLine
 10
1111.2543481057
 20
838.3038272730358
 30
0.0
 11
1126.774851936723
 21
835.7790183312866
 31
0.0
  0
ARC
  5
3DC
330
1F
100
AcDbEntity
  8
0
  6
CONTINUOUS
100
AcDbCircle
 10
831.5332267750346
 20
921.9905268081255
 30
0.0
 40
33.8737589960223
100
AcDbArc
 50
204.4466176865892
 51
271.6684235434292
  0
ARC
  5
3DD
330
1F
100
AcDbEntity
  8
0
  6
CONTINUOUS
100
AcDbCircle
 10
831.5332267750346
 20
921.9905268081255
 30
0.0
 40
39.8737589960223
100
AcDbArc
 50
204.4466176865892
 51
271.6684235434292
  0
ARC
  5
3DE
330
1F
100
AcDbEntity
  8
0
  6
CONTINUOUS
100
AcDbCircle
 10
739.7005073086475
 20
921.9905268081255
 30
0.0
 40
39.8737589960223
100
AcDbArc
 50
268.3315764565707
 51
335.5533823134107
  0
ARC
  5
3DF
330
1F
100
AcDbEntity
  8
0
  6
CONTINUOUS
100
AcDbCircle
 10
739.7005073086475
 20
921.9905268081255
 30
0.0
 40
33.8737589960223
100
AcDbArc
 50
268.3315764565707
 51
335.5533823134107
  0
LINE
  5
3E0
330
1F
100
AcDbEntity
  8
0
100
AcDbLine
 10
768.9348147162018
 20
915.6779481402072
 30
0.0
 11
802.2989193674876
 21
915.6779481402072
 31
0.0
  0
LINE
  5
3E1
330
1F
100
AcDbEntity
  8
0
100
AcDbLine
 10
768.9348147162018
 20
919.6779481402071
 30
0.0
 11
802.2989193674876
 21
919.6779481402071
 31
0.0
  0
LINE
  5
3E2
330
1F
100
AcDbEntity
  8
0
100
AcDbLine
 10
768.9348147162018
 20
925.677948140208
 30
0.0
 11
802.2989193674876
 21
925.677948140208
 31
0.0
  0
ARC
  5
3E3
330
1F
100
AcDbEntity
  8
0
  6
CONTINUOUS
100
AcDbCircle
 10
736.6385001581147
 20
922.7474012228739
 30
0.0
 40
36.97836688373008
100
AcDbArc
 50
336.3241931828178
 51
348.9784565766478
  0
LINE
  5
3E4
330
1F
100
AcDbEntity
  8
0
100
AcDbLine
 10
768.9348147162018
 20
919.6779481402071
 30
0.0
 11
768.9348147162018
 21
915.6779481402072
 31
0.0
  0
ARC
  5
3E5
330
1F
100
AcDbEntity
  8
0
100
AcDbCircle
 10
768.9348147162018
 20
922.6779481402072
 30
0.0
 40
3.000000000000056
100
AcDbArc
 50
90.0
 51
270.0
  0
ARC
  5
3E6
330
1F
100
AcDbEntity
  8
0
  6
CONTINUOUS
100
AcDbCircle
 10
747.8165605519389
 20
931.6353084843822
 30
0.0
 40
10.98638464699961
100
AcDbArc
 50
218.1859196082654
 51
303.603729103248
  0
ARC
  5
3E7
330
1F
100
AcDbEntity
  8
0
  6
CONTINUOUS
100
AcDbCircle
 10
745.7922059489283
 20
930.1549545376827
 30
0.0
 40
13.29758727790373
100
AcDbArc
 50
225.5692043135907
 51
315.0605888708233
  0
LINE
  5
3E8
330
1F
100
AcDbEntity
  8
0
  6
CONTINUOUS
100
AcDbLine
 10
753.8969285399944
 20
922.4849110754375
 30
0.0
 11
755.204958070899
 21
920.7620888991376
 31
0.0
  0
LINE
  5
3E9
330
1F
100
AcDbEntity
  8
0
  6
CONTINUOUS
100
AcDbLine
 10
817.3368055436949
 20
922.4849110754375
 30
0.0
 11
816.0287760127904
 21
920.7620888991376
 31
0.0
  0
ARC
  5
3EA
330
1F
100
AcDbEntity
  8
0
  6
CONTINUOUS
100
AcDbCircle
 10
825.4415281347609
 20
930.1549545376827
 30
0.0
 40
13.29758727790373
100
AcDbArc
 50
224.9394111291767
 51
314.4307956864093
  0
ARC
  5
3EB
330
1F
100
AcDbEntity
  8
0
  6
CONTINUOUS
100
AcDbCircle
 10
823.4171735317504
 20
931.6353084843822
 30
0.0
 40
10.98638464699961
100
AcDbArc
 50
236.3962708967519
 51
321.8140803917344
  0
ARC
  5
3EC
330
1F
100
AcDbEntity
  8
0
  6
CONTINUOUS
100
AcDbCircle
 10
834.5952339255745
 20
922.7474012228739
 30
0.0
 40
36.97836688373008
100
AcDbArc
 50
191.0215434233521
 51
203.6758068171822
  0
ARC
  5
3ED
330
1F
100
AcDbEntity
  8
0
100
AcDbCircle
 10
802.2989193674876
 20
922.6779481402072
 30
0.0
 40
3.000000000000056
100
AcDbArc
 50
270.0
 51
90.0
  0
LINE
  5
3EE
330
1F
100
AcDbEntity
  8
0
100
AcDbLine
 10
802.2989193674876
 20
919.6779481402071
 30
0.0
 11
802.2989193674876
 21
915.6779481402072
 31
0.0
  0
ARC
  5
3EF
330
1F
100
AcDbEntity
  8
0
  6
CONTINUOUS
100
AcDbCircle
 10
834.5952339255745
 20
922.7474012228739
 30
0.0
 40
42.97836688373009
100
AcDbArc
 50
189.4675297751719
 51
203.6758068171822
  0
ARC
  5
3F0
330
1F
100
AcDbEntity
  8
0
  6
CONTINUOUS
100
AcDbCircle
 10
736.6385001581147
 20
922.7474012228739
 30
0.0
 40
42.97836688373009
100
AcDbArc
 50
336.3241931828178
 51
350.532470224828
  0
ARC
  5
3F1
330
1F
100
AcDbEntity
  8
0
100
AcDbCircle
 10
1174.542102889332
 20
879.4994002085507
 30
0.0
 40
41.59279291423044
100
AcDbArc
 50
159.3683311470854
 51
200.6316688529145
  0
ARC
  5
3F2
330
1F
100
AcDbEntity
  8
0
100
AcDbCircle
 10
1082.379789295831
 20
879.4994002085507
 30
0.0
 40
27.47268131795497
100
AcDbArc
 50
327.7604243754351
 51
32.23957562456488
  0
LINE
  5
3F3
330
1F
100
AcDbEntity
  8
0
100
AcDbLine
 10
1134.862390410511
 20
880.4125419221621
 30
0.0
 11
1110.116042909328
 21
880.4125419221621
 31
0.0
  0
LINE
  5
3F4
330
1F
100
AcDbEntity
  8
0
100
AcDbLine
 10
1111.631119855039
 20
877.8891750090009
 30
0.0
 11
1134.862390410511
 21
880.4125419221621
 31
0.0
  0
LINE
  5
3F5
330
1F
100
AcDbEntity
  8
0
100
AcDbLine
 10
1128.295508238094
 20
921.8475395689623
 30
0.0
 11
1105.5692568511
 21
924.3709064821235
 31
0.0
  0
ARC
  5
3F6
330
1F
100
AcDbEntity
  8
0
100
AcDbCircle
 10
407.2011572341288
 20
1070.813364478075
 30
0.0
 40
30.75581818224811
100
AcDbArc
 50
337.5050578832839
 51
22.49494211671605
  0
ARC
  5
3F7
330
1F
100
AcDbEntity
  8
0
100
AcDbCircle
 10
380.3724259271766
 20
1017.275037789602
 30
0.0
 40
59.25027723911768
100
AcDbArc
 50
338.8106919803579
 51
21.18930801964204
  0
LINE
  5
3F8
330
1F
100
AcDbEntity
  8
0
100
AcDbLine
 10
462.4857209808761
 20
940.7402517544818
 30
0.0
 11
442.000834788676
 21
944.352693591249
 31
0.0
  0
LINE
  5
3F9
330
1F
100
AcDbEntity
  8
0
100
AcDbLine
 10
442.000834788676
 20
939.5361121053396
 30
0.0
 11
464.2932183720549
 21
938.9340422807693
 31
0.0
  0
LINE
  5
3FA
330
1F
100
AcDbEntity
  8
0
100
AcDbLine
 10
440.2269884938359
 20
985.666068715844
 30
0.0
 11
461.6676358069598
 21
985.666068715844
 31
0.0
  0
LINE
  5
3FB
330
1F
100
AcDbEntity
  8
0
100
AcDbLine
 10
460.8879840342269
 20
982.9391697677786
 30
0.0
 11
437.8880137353771
 21
983.7182886577997
 31
0.0
  0
ARC
  5
3FC
330
1F
100
AcDbEntity
  8
0
100
AcDbCircle
 10
494.0325768495531
 20
984.0917568949221
 30
0.0
 40
30.75581818224811
100
AcDbArc
 50
157.5050578832839
 51
202.494942116716
  0
LINE
  5
3FD
330
1F
100
AcDbEntity
  8
0
100
AcDbLine
 10
463.4914046987906
 20
1019.617384336361
 30
0.0
 11
441.8894809586199
 21
1018.439933660759
 31
0.0
  0
LINE
  5
3FE
330
1F
100
AcDbEntity
  8
0
100
AcDbLine
 10
441.1039582262747
 20
1013.730096624329
 30
0.0
 11
463.4914046987906
 21
1019.617384336361
 31
0.0
  0
LINE
  5
3FF
330
1F
100
AcDbEntity
  8
0
100
AcDbLine
 10
438.1291118848675
 20
1066.546865397228
 30
0.0
 11
464.1618993912634
 21
1065.277868795667
 31
0.0
  0
LINE
  5
400
330
1F
100
AcDbEntity
  8
0
100
AcDbLine
 10
440.033966116287
 20
1069.71936262346
 30
0.0
 11
449.558140072062
 21
1067.815861998786
 31
0.0
  0
LINE
  5
401
330
1F
100
AcDbEntity
  8
0
100
AcDbLine
 10
460.2943950246626
 20
1045.155950956832
 30
0.0
 11
439.0609809217931
 21
1043.675594165181
 31
0.0
  0
ARC
  5
402
330
1F
100
AcDbEntity
  8
0
100
AcDbCircle
 10
520.8613081565053
 20
1103.996645372755
 30
0.0
 40
59.25027723911768
100
AcDbArc
 50
158.8106919803579
 51
201.189308019642
  0
LINE
  5
403
330
1F
100
AcDbEntity
  8
0
100
AcDbLine
 10
455.901848018053
 20
1100.878292886575
 30
0.0
 11
438.1233575668375
 21
1104.050790112808
 31
0.0
  0
LINE
  5
404
330
1F
100
AcDbEntity
  8
0
100
AcDbLine
 10
438.1233575668375
 20
1107.223287339042
 30
0.0
 11
460.9814139412192
 21
1100.878292886575
 31
0.0
  0
LINE
  5
405
330
1F
100
AcDbEntity
  8
0
100
AcDbLine
 10
442.5660604536097
 20
1134.55673320861
 30
0.0
 11
460.9794893551152
 21
1133.287736607051
 31
0.0
  0
LINE
  5
406
330
1F
100
AcDbEntity
  8
0
100
AcDbLine
 10
453.9957107292357
 20
1158.081014785948
 30
0.0
 11
440.6618477508891
 21
1155.543010138157
 31
0.0
  0
ARC
  5
407
330
1F
100
AcDbEntity
  8
0
100
AcDbCircle
 10
423.377961608232
 20
1133.560892299981
 30
0.0
 40
14.70319572620801
100
AcDbArc
 50
326.3458272490087
 51
33.6541727509913
  0
LINE
  5
408
330
1F
100
AcDbEntity
  8
0
100
AcDbLine
 10
460.9794893551152
 20
1130.74973195926
 30
0.0
 11
441.2961641127476
 21
1132.653232583936
 31
0.0
  0
ARC
  5
409
330
1F
100
AcDbEntity
  8
0
100
AcDbCircle
 10
482.5933051231768
 20
1133.560892299981
 30
0.0
 40
18.83062952425546
100
AcDbArc
 50
154.3603398614806
 51
205.6396601385193
  0
ARC
  5
40A
330
1F
100
AcDbEntity
  8
0
100
AcDbCircle
 10
518.4881601959932
 20
1181.337840063822
 30
0.0
 40
57.11966942967778
100
AcDbArc
 50
157.7625217861415
 51
202.2374782138584
  0
LINE
  5
40B
330
1F
100
AcDbEntity
  8
0
100
AcDbLine
 10
436.5808504091473
 20
1182.641422462135
 30
0.0
 11
460.3171401331056
 21
1183.650773805268
 31
0.0
  0
LINE
  5
40C
330
1F
100
AcDbEntity
  8
0
100
AcDbLine
 10
458.2970440189092
 20
1180.118066993644
 30
0.0
 11
436.5808504091473
 21
1182.641422462135
 31
0.0
  0
LINE
  5
40D
330
1F
100
AcDbEntity
  8
0
100
AcDbLine
 10
440.6618477508891
 20
1159.350011387507
 30
0.0
 11
455.9005649606478
 21
1160.619007989066
 31
0.0
  0
LINE
  5
40E
330
1F
100
AcDbEntity
  8
0
100
AcDbLine
 10
464.8623904105043
 20
1218.52330535502
 30
0.0
 11
440.1160429093216
 21
1218.52330535502
 31
0.0
  0
ARC
  5
40F
330
1F
100
AcDbEntity
  8
0
100
AcDbCircle
 10
412.3797892958245
 20
1217.610163641409
 30
0.0
 40
27.47268131795497
100
AcDbArc
 50
327.7604243754351
 51
32.23957562456488
  0
ARC
  5
410
330
1F
100
AcDbEntity
  8
0
100
AcDbCircle
 10
504.5421028893251
 20
1217.610163641409
 30
0.0
 40
41.59279291423044
100
AcDbArc
 50
159.3683311470854
 51
200.6316688529145
  0
LINE
  5
411
330
1F
100
AcDbEntity
  8
0
100
AcDbLine
 10
441.631119855032
 20
1215.999938441859
 30
0.0
 11
464.8623904105043
 21
1218.52330535502
 31
0.0
  0
ARC
  5
412
330
1F
100
AcDbEntity
  8
0
100
AcDbCircle
 10
1152.593305123184
 20
1088.792319606032
 30
0.0
 40
18.83062952425546
100
AcDbArc
 50
154.3603398614806
 51
205.6396601385193
  0
ARC
  5
413
330
1F
100
AcDbEntity
  8
0
100
AcDbCircle
 10
1093.377961608239
 20
1088.792319606032
 30
0.0
 40
14.70319572620801
100
AcDbArc
 50
326.3458272490087
 51
33.6541727509913
  0
ARC
  5
414
330
1F
100
AcDbEntity
  8
0
  6
CONTINUOUS
100
AcDbCircle
 10
932.9969623382785
 20
1121.331217657023
 30
0.0
 40
141.308884614809
100
AcDbArc
 50
178.6449495593094
 51
204.0061457044652
  0
ARC
  5
415
330
1F
100
AcDbEntity
  8
0
  6
CONTINUOUS
100
AcDbCircle
 10
932.9969623382785
 20
1121.331217657023
 30
0.0
 40
135.308884614809
100
AcDbArc
 50
178.6449495593094
 51
203.9235377324938
  0
POLYLINE
  5
416
330
1F
100
AcDbEntity
  8
0
  6
CONTINUOUS
100
AcDb2dPolyline
 66
     1
 10
0.0
 20
0.0
 30
0.0
  0
VERTEX
  5
814
330
416
100
AcDbEntity
  8
0
  6
CONTINUOUS
100
AcDbVertex
100
AcDb2dVertex
 10
846.4972125650675
 20
1095.185590714945
 30
0.0
 42
-0.6244873880121875
  0
VERTEX
  5
815
330
416
100
AcDbEntity
  8
0
  6
CONTINUOUS
100
AcDbVertex
100
AcDb2dVertex
 10
846.017728114857
 20
1111.844402055624
 30
0.0
 42
-0.5712699294635224
  0
VERTEX
  5
816
330
416
100
AcDbEntity
  8
0
  6
CONTINUOUS
100
AcDbVertex
100
AcDb2dVertex
 10
872.6156416064695
 20
1095.213310513326
 30
0.0
 42
-0.1992749000703595
  0
VERTEX
  5
817
330
416
100
AcDbEntity
  8
0
  6
CONTINUOUS
100
AcDbVertex
100
AcDb2dVertex
 10
866.1216892595694
 20
1079.477601019444
 30
0.0
 42
-0.1922899288213652
  0
VERTEX
  5
818
330
416
100
AcDbEntity
  8
0
  6
CONTINUOUS
100
AcDbVertex
100
AcDb2dVertex
 10
846.5779101513689
 20
1071.672874205843
 30
0.0
 42
-0.1435180749715141
  0
VERTEX
  5
819
330
416
100
AcDbEntity
  8
0
  6
CONTINUOUS
100
AcDbVertex
100
AcDb2dVertex
 10
824.9434620451793
 20
1078.104620877992
 30
0.0
 42
-0.2013051193684176
  0
VERTEX
  5
81A
330
416
100
AcDbEntity
  8
0
  6
CONTINUOUS
100
AcDbVertex
100
AcDb2dVertex
 10
799.588238706172
 20
1114.495774700252
 30
0.0
 42
-0.0321832401292304
  0
VERTEX
  5
81B
330
416
100
AcDbEntity
  8
0
  6
CONTINUOUS
100
AcDbVertex
100
AcDb2dVertex
 10
797.9630706792232
 20
1124.672874205843
 30
0.0
 42
-0.0321832401292304
  0
SEQEND
  5
81C
330
416
100
AcDbEntity
  8
0
  6
CONTINUOUS
  0
POLYLINE
  5
417
330
1F
100
AcDbEntity
  8
0
  6
CONTINUOUS
100
AcDb2dPolyline
 66
     1
 10
0.0
 20
0.0
 30
0.0
  0
VERTEX
  5
81D
330
417
100
AcDbEntity
  8
0
  6
CONTINUOUS
100
AcDbVertex
100
AcDb2dVertex
 10
846.4972125650675
 20
1095.185590714945
 30
0.0
  0
VERTEX
  5
81E
330
417
100
AcDbEntity
  8
0
  6
CONTINUOUS
100
AcDbVertex
100
AcDb2dVertex
 10
846.7991974803517
 20
1096.827944819882
 30
0.0
 42
-0.5016049534703276
  0
VERTEX
  5
81F
330
417
100
AcDbEntity
  8
0
  6
CONTINUOUS
100
AcDbVertex
100
AcDb2dVertex
 10
848.7963315332454
 20
1106.526542415202
 30
0.0
 42
-0.5731451722580876
  0
VERTEX
  5
820
330
417
100
AcDbEntity
  8
0
  6
CONTINUOUS
100
AcDbVertex
100
AcDb2dVertex
 10
866.6152537300295
 20
1095.287271706627
 30
0.0
 42
-0.1994211041236551
  0
VERTEX
  5
821
330
417
100
AcDbEntity
  8
0
  6
CONTINUOUS
100
AcDbVertex
100
AcDb2dVertex
 10
861.9306595473245
 20
1083.772174525956
 30
0.0
 42
-0.1912321573076029
  0
VERTEX
  5
822
330
417
100
AcDbEntity
  8
0
  6
CONTINUOUS
100
AcDbVertex
100
AcDb2dVertex
 10
846.5893332319319
 20
1077.672877122126
 30
0.0
 42
-0.143630861908326
  0
VERTEX
  5
823
330
417
100
AcDbEntity
  8
0
  6
CONTINUOUS
100
AcDbVertex
100
AcDb2dVertex
 10
828.1791130726269
 20
1083.157483068079
 30
0.0
 42
-0.2016233873508618
  0
VERTEX
  5
824
330
417
100
AcDbEntity
  8
0
  6
CONTINUOUS
100
AcDbVertex
100
AcDb2dVertex
 10
805.4475209742449
 20
1115.788132873729
 30
0.0
 42
-0.0305957625576657
  0
VERTEX
  5
825
330
417
100
AcDbEntity
  8
0
  6
CONTINUOUS
100
AcDbVertex
100
AcDb2dVertex
 10
803.9922533685894
 20
1124.672874205843
 30
0.0
 42
-0.0305957625576657
  0
SEQEND
  5
826
330
417
100
AcDbEntity
  8
0
  6
CONTINUOUS
  0
ARC
  5
418
330
1F
100
AcDbEntity
  8
0
  6
CONTINUOUS
100
AcDbCircle
 10
638.2367717454035
 20
1121.331217657023
 30
0.0
 40
135.308884614809
100
AcDbArc
 50
336.0764622675061
 51
1.355050440690533
  0
POLYLINE
  5
419
330
1F
100
AcDbEntity
  8
0
  6
CONTINUOUS
100
AcDb2dPolyline
 66
     1
 10
0.0
 20
0.0
 30
0.0
  0
VERTEX
  5
827
330
419
100
AcDbEntity
  8
0
  6
CONTINUOUS
100
AcDbVertex
100
AcDb2dVertex
 10
724.7365215186219
 20
1095.185590714945
 30
0.0
  0
VERTEX
  5
828
330
419
100
AcDbEntity
  8
0
  6
CONTINUOUS
100
AcDbVertex
100
AcDb2dVertex
 10
724.4345366033376
 20
1096.827944819882
 30
0.0
 42
0.5016049534703276
  0
VERTEX
  5
829
330
419
100
AcDbEntity
  8
0
  6
CONTINUOUS
100
AcDbVertex
100
AcDb2dVertex
 10
722.4374025504439
 20
1106.526542415202
 30
0.0
 42
0.5731451722580876
  0
VERTEX
  5
82A
330
419
100
AcDbEntity
  8
0
  6
CONTINUOUS
100
AcDbVertex
100
AcDb2dVertex
 10
704.6184803536598
 20
1095.287271706627
 30
0.0
 42
0.1994211041236551
  0
VERTEX
  5
82B
330
419
100
AcDbEntity
  8
0
  6
CONTINUOUS
100
AcDbVertex
100
AcDb2dVertex
 10
709.3030745363575
 20
1083.772174525956
 30
0.0
 42
0.1912321573076029
  0
VERTEX
  5
82C
330
419
100
AcDbEntity
  8
0
  6
CONTINUOUS
100
AcDbVertex
100
AcDb2dVertex
 10
724.6444008517573
 20
1077.672877122126
 30
0.0
 42
0.143630861908326
  0
VERTEX
  5
82D
330
419
100
AcDbEntity
  8
0
  6
CONTINUOUS
100
AcDbVertex
100
AcDb2dVertex
 10
743.0546210110624
 20
1083.157483068079
 30
0.0
 42
0.2016233873508618
  0
VERTEX
  5
82E
330
419
100
AcDbEntity
  8
0
  6
CONTINUOUS
100
AcDbVertex
100
AcDb2dVertex
 10
765.7862131094443
 20
1115.788132873729
 30
0.0
 42
0.0305957625576657
  0
VERTEX
  5
82F
330
419
100
AcDbEntity
  8
0
  6
CONTINUOUS
100
AcDbVertex
100
AcDb2dVertex
 10
767.2414807150926
 20
1124.672874205843
 30
0.0
 42
0.0305957625576657
  0
SEQEND
  5
830
330
419
100
AcDbEntity
  8
0
  6
CONTINUOUS
  0
ARC
  5
41A
330
1F
100
AcDbEntity
  8
0
  6
CONTINUOUS
100
AcDbCircle
 10
638.2367717454035
 20
1121.331217657023
 30
0.0
 40
141.308884614809
100
AcDbArc
 50
335.9938542955347
 51
1.355050440690533
  0
POLYLINE
  5
41B
330
1F
100
AcDbEntity
  8
0
  6
CONTINUOUS
100
AcDb2dPolyline
 66
     1
 10
0.0
 20
0.0
 30
0.0
  0
VERTEX
  5
831
330
41B
100
AcDbEntity
  8
0
  6
CONTINUOUS
100
AcDbVertex
100
AcDb2dVertex
 10
724.7365215186219
 20
1095.185590714945
 30
0.0
 42
0.6244873880121875
  0
VERTEX
  5
832
330
41B
100
AcDbEntity
  8
0
  6
CONTINUOUS
100
AcDbVertex
100
AcDb2dVertex
 10
725.2160059688321
 20
1111.844402055624
 30
0.0
 42
0.5712699294635224
  0
VERTEX
  5
833
330
41B
100
AcDbEntity
  8
0
  6
CONTINUOUS
100
AcDbVertex
100
AcDb2dVertex
 10
698.6180924772197
 20
1095.213310513326
 30
0.0
 42
0.1992749000703595
  0
VERTEX
  5
834
330
41B
100
AcDbEntity
  8
0
  6
CONTINUOUS
100
AcDbVertex
100
AcDb2dVertex
 10
705.1120448241126
 20
1079.477601019444
 30
0.0
 42
0.1922899288213652
  0
VERTEX
  5
835
330
41B
100
AcDbEntity
  8
0
  6
CONTINUOUS
100
AcDbVertex
100
AcDb2dVertex
 10
724.655823932313
 20
1071.672874205843
 30
0.0
 42
0.1435180749715141
  0
VERTEX
  5
836
330
41B
100
AcDbEntity
  8
0
  6
CONTINUOUS
100
AcDbVertex
100
AcDb2dVertex
 10
746.2902720385027
 20
1078.104620877992
 30
0.0
 42
0.2013051193684176
  0
VERTEX
  5
837
330
41B
100
AcDbEntity
  8
0
  6
CONTINUOUS
100
AcDbVertex
100
AcDb2dVertex
 10
771.6454953775174
 20
1114.495774700252
 30
0.0
 42
0.0321832401292304
  0
VERTEX
  5
838
330
41B
100
AcDbEntity
  8
0
  6
CONTINUOUS
100
AcDbVertex
100
AcDb2dVertex
 10
773.2706634044589
 20
1124.672874205843
 30
0.0
 42
0.0321832401292304
  0
SEQEND
  5
839
330
41B
100
AcDbEntity
  8
0
  6
CONTINUOUS
  0
LINE
  5
41C
330
1F
100
AcDbEntity
  8
0
  6
CONTINUOUS
100
AcDbLine
 10
791.616867041841
 20
929.677948140207
 30
0.0
 11
791.616867041841
 21
1124.672874205843
 31
0.0
  0
LINE
  5
41D
330
1F
100
AcDbEntity
  8
0
  6
CONTINUOUS
100
AcDbLine
 10
779.616867041841
 20
929.677948140207
 30
0.0
 11
779.616867041841
 21
1124.672874205843
 31
0.0
  0
ARC
  5
41E
330
1F
100
AcDbEntity
  8
0
100
AcDbCircle
 10
1237.594626534824
 20
983.1878509481324
 30
0.0
 40
106.6116003211486
100
AcDbArc
 50
163.0452386242172
 51
196.9547613757827
  0
LINE
  5
41F
330
1F
100
AcDbEntity
  8
0
  6
CONTINUOUS
100
AcDbLine
 10
699.2236278055279
 20
947.4014550431411
 30
0.0
 11
761.920923895188
 21
1066.4611460087
 31
0.0
  0
LINE
  5
420
330
1F
100
AcDbEntity
  8
0
  6
CONTINUOUS
100
AcDbLine
 10
704.5234900868308
 20
944.588656745609
 30
0.0
 11
767.3226956852231
 21
1063.84186984645
 31
0.0
  0
LINE
  5
421
330
1F
100
AcDbEntity
  8
0
  6
CONTINUOUS
100
AcDbLine
 10
866.7102439968585
 20
944.588656745609
 30
0.0
 11
803.9110383984661
 21
1063.84186984645
 31
0.0
  0
LINE
  5
422
330
1F
100
AcDbEntity
  8
0
  6
CONTINUOUS
100
AcDbLine
 10
872.0101062781614
 20
947.4014550431411
 30
0.0
 11
809.3128101884939
 21
1066.4611460087
 31
0.0
  0
LINE
  5
423
330
1F
100
AcDbEntity
  8
0
100
AcDbLine
 10
802.2989193674876
 20
929.677948140207
 30
0.0
 11
768.9348147162018
 21
929.677948140207
 31
0.0
  0
ARC
  5
424
330
1F
100
AcDbEntity
  8
0
  6
CONTINUOUS
100
AcDbCircle
 10
752.1987991384739
 20
928.8185693426202
 30
0.0
 40
26.38058376875362
100
AcDbArc
 50
29.52527956271241
 51
126.5497067147593
  0
ARC
  5
425
330
1F
100
AcDbEntity
  8
0
  6
CONTINUOUS
100
AcDbCircle
 10
736.6385001581147
 20
922.7474012228739
 30
0.0
 40
36.97836688373008
100
AcDbArc
 50
10.80235333349739
 51
26.34349293025129
  0
ARC
  5
426
330
1F
100
AcDbEntity
  8
0
  6
CONTINUOUS
100
AcDbCircle
 10
752.645983048249
 20
929.4246747889244
 30
0.0
 40
19.7020449873939
100
AcDbArc
 50
29.60090417249441
 51
127.2767026925393
  0
ARC
  5
427
330
1F
100
AcDbEntity
  8
0
  6
CONTINUOUS
100
AcDbCircle
 10
834.5952339255745
 20
922.7474012228739
 30
0.0
 40
36.97836688373008
100
AcDbArc
 50
153.6565070697487
 51
169.1976466665026
  0
ARC
  5
428
330
1F
100
AcDbEntity
  8
0
  6
CONTINUOUS
100
AcDbCircle
 10
834.5952339255745
 20
922.7474012228739
 30
0.0
 40
42.97836688373009
100
AcDbArc
 50
153.6565070697487
 51
170.7201565413437
  0
ARC
  5
429
330
1F
100
AcDbEntity
  8
0
  6
CONTINUOUS
100
AcDbCircle
 10
736.6385001581147
 20
922.7474012228739
 30
0.0
 40
42.97836688373009
100
AcDbArc
 50
9.279843458656232
 51
26.34349293025129
  0
ARC
  5
42A
330
1F
100
AcDbEntity
  8
0
  6
CONTINUOUS
100
AcDbCircle
 10
819.0349349452153
 20
928.8185693426202
 30
0.0
 40
26.38058376875362
100
AcDbArc
 50
53.45029328524061
 51
150.4747204372875
  0
ARC
  5
42B
330
1F
100
AcDbEntity
  8
0
  6
CONTINUOUS
100
AcDbCircle
 10
818.5877510354403
 20
929.4246747889244
 30
0.0
 40
19.7020449873939
100
AcDbArc
 50
52.72329730746069
 51
150.3990958275055
  0
LINE
  5
42C
330
1F
100
AcDbEntity
  8
0
100
AcDbLine
 10
1130.31562379255
 20
927.3989376221802
 30
0.0
 11
1107.08433379681
 21
928.9129646368804
 31
0.0
  0
LINE
  5
42D
330
1F
100
AcDbEntity
  8
0
100
AcDbLine
 10
1134.862390410511
 20
938.3556914545865
 30
0.0
 11
1110.116042909328
 21
938.3556914545865
 31
0.0
  0
LINE
  5
42E
330
1F
100
AcDbEntity
  8
0
100
AcDbLine
 10
1111.631119855039
 20
935.8323245414252
 30
0.0
 11
1134.862390410511
 21
938.3556914545865
 31
0.0
  0
LINE
  5
42F
330
1F
100
AcDbEntity
  8
0
100
AcDbLine
 10
1130.31562379255
 20
985.3420871546044
 30
0.0
 11
1107.08433379681
 21
986.8561141693048
 31
0.0
  0
LINE
  5
430
330
1F
100
AcDbEntity
  8
0
100
AcDbLine
 10
1128.295508238094
 20
979.7906891013866
 30
0.0
 11
1105.5692568511
 21
982.3140560145478
 31
0.0
  0
ARC
  5
431
330
1F
100
AcDbEntity
  8
0
100
AcDbCircle
 10
1190.861308156512
 20
1059.228072678806
 30
0.0
 40
59.25027723911768
100
AcDbArc
 50
158.8106919803579
 51
201.189308019642
  0
ARC
  5
432
330
1F
100
AcDbEntity
  8
0
100
AcDbCircle
 10
1077.201157234136
 20
1026.044791784126
 30
0.0
 40
30.75581818224811
100
AcDbArc
 50
337.5050578832839
 51
22.49494211671605
  0
LINE
  5
433
330
1F
100
AcDbEntity
  8
0
100
AcDbLine
 10
1108.129111884875
 20
1021.778292703279
 30
0.0
 11
1134.16189939127
 21
1020.509296101718
 31
0.0
  0
LINE
  5
434
330
1F
100
AcDbEntity
  8
0
100
AcDbLine
 10
1110.033966116294
 20
1024.950789929511
 30
0.0
 11
1119.558140072069
 21
1023.047289304837
 31
0.0
  0
LINE
  5
435
330
1F
100
AcDbEntity
  8
0
100
AcDbLine
 10
1108.123357566844
 20
1062.454714645093
 30
0.0
 11
1130.981413941226
 21
1056.109720192626
 31
0.0
  0
LINE
  5
436
330
1F
100
AcDbEntity
  8
0
100
AcDbLine
 10
1125.90184801806
 20
1056.109720192626
 30
0.0
 11
1108.123357566844
 21
1059.282217418859
 31
0.0
  0
LINE
  5
437
330
1F
100
AcDbEntity
  8
0
100
AcDbLine
 10
1115.747828961059
 20
1162.243871128943
 30
0.0
 11
1132.891361521709
 21
1153.9953760518
 31
0.0
  0
ARC
  5
438
330
1F
100
AcDbEntity
  8
0
100
AcDbCircle
 10
1066.035267546278
 20
1159.863774333808
 30
0.0
 40
47.3092865871033
100
AcDbArc
 50
326.7886702848471
 51
33.21132971515288
  0
POLYLINE
  5
439
330
1F
100
AcDbEntity
  8
0
  6
CONTINUOUS
100
AcDb2dPolyline
 66
     1
 10
0.0
 20
0.0
 30
0.0
  0
VERTEX
  5
83A
330
439
100
AcDbEntity
  8
0
  6
CONTINUOUS
100
AcDbVertex
100
AcDb2dVertex
 10
846.4972125650675
 20
1168.160157696739
 30
0.0
 42
0.6244873880122032
  0
VERTEX
  5
83B
330
439
100
AcDbEntity
  8
0
  6
CONTINUOUS
100
AcDbVertex
100
AcDb2dVertex
 10
846.017728114857
 20
1151.501346356061
 30
0.0
 42
0.5712699294635224
  0
VERTEX
  5
83C
330
439
100
AcDbEntity
  8
0
  6
CONTINUOUS
100
AcDbVertex
100
AcDb2dVertex
 10
872.6156416064695
 20
1168.132437898359
 30
0.0
 42
0.1992749000703595
  0
VERTEX
  5
83D
330
439
100
AcDbEntity
  8
0
  6
CONTINUOUS
100
AcDbVertex
100
AcDb2dVertex
 10
866.1216892595694
 20
1183.868147392241
 30
0.0
 42
0.1922899288213652
  0
VERTEX
  5
83E
330
439
100
AcDbEntity
  8
0
  6
CONTINUOUS
100
AcDbVertex
100
AcDb2dVertex
 10
846.5779101513689
 20
1191.672874205843
 30
0.0
 42
0.1435180749715141
  0
VERTEX
  5
83F
330
439
100
AcDbEntity
  8
0
  6
CONTINUOUS
100
AcDbVertex
100
AcDb2dVertex
 10
824.9434620451793
 20
1185.241127533693
 30
0.0
 42
0.2013051193684176
  0
VERTEX
  5
840
330
439
100
AcDbEntity
  8
0
  6
CONTINUOUS
100
AcDbVertex
100
AcDb2dVertex
 10
799.588238706172
 20
1148.849973711433
 30
0.0
 42
0.0323879793785061
  0
VERTEX
  5
841
330
439
100
AcDbEntity
  8
0
  6
CONTINUOUS
100
AcDbVertex
100
AcDb2dVertex
 10
797.9637497469957
 20
1138.672874205843
 30
0.0
 42
0.0323879793785061
  0
SEQEND
  5
842
330
439
100
AcDbEntity
  8
0
  6
CONTINUOUS
  0
POLYLINE
  5
43A
330
1F
100
AcDbEntity
  8
0
  6
CONTINUOUS
100
AcDb2dPolyline
 66
     1
 10
0.0
 20
0.0
 30
0.0
  0
VERTEX
  5
843
330
43A
100
AcDbEntity
  8
0
  6
CONTINUOUS
100
AcDbVertex
100
AcDb2dVertex
 10
846.4972125650675
 20
1168.160157696739
 30
0.0
  0
VERTEX
  5
844
330
43A
100
AcDbEntity
  8
0
  6
CONTINUOUS
100
AcDbVertex
100
AcDb2dVertex
 10
846.7991974803517
 20
1166.517803591803
 30
0.0
 42
0.5016049534703276
  0
VERTEX
  5
845
330
43A
100
AcDbEntity
  8
0
  6
CONTINUOUS
100
AcDbVertex
100
AcDb2dVertex
 10
848.7963315332454
 20
1156.819205996483
 30
0.0
 42
0.5731451722580876
  0
VERTEX
  5
846
330
43A
100
AcDbEntity
  8
0
  6
CONTINUOUS
100
AcDbVertex
100
AcDb2dVertex
 10
866.6152537300295
 20
1168.058476705057
 30
0.0
 42
0.1994211041236551
  0
VERTEX
  5
847
330
43A
100
AcDbEntity
  8
0
  6
CONTINUOUS
100
AcDbVertex
100
AcDb2dVertex
 10
861.9306595473245
 20
1179.573573885728
 30
0.0
 42
0.1912321573076029
  0
VERTEX
  5
848
330
43A
100
AcDbEntity
  8
0
  6
CONTINUOUS
100
AcDbVertex
100
AcDb2dVertex
 10
846.5893332319319
 20
1185.67287128956
 30
0.0
 42
0.143630861908326
  0
VERTEX
  5
849
330
43A
100
AcDbEntity
  8
0
  6
CONTINUOUS
100
AcDbVertex
100
AcDb2dVertex
 10
828.1791130726269
 20
1180.188265343606
 30
0.0
 42
0.2016233873508618
  0
VERTEX
  5
84A
330
43A
100
AcDbEntity
  8
0
  6
CONTINUOUS
100
AcDbVertex
100
AcDb2dVertex
 10
805.4475209742449
 20
1147.557615537955
 30
0.0
 42
0.0305957625576679
  0
VERTEX
  5
84B
330
43A
100
AcDbEntity
  8
0
  6
CONTINUOUS
100
AcDbVertex
100
AcDb2dVertex
 10
803.9922533685894
 20
1138.672874205843
 30
0.0
 42
0.0305957625576679
  0
SEQEND
  5
84C
330
43A
100
AcDbEntity
  8
0
  6
CONTINUOUS
  0
ARC
  5
43B
330
1F
100
AcDbEntity
  8
0
  6
CONTINUOUS
100
AcDbCircle
 10
932.9969623382785
 20
1142.014530754661
 30
0.0
 40
135.308884614809
100
AcDbArc
 50
156.0764622675061
 51
181.3550504406905
  0
ARC
  5
43C
330
1F
100
AcDbEntity
  8
0
  6
CONTINUOUS
100
AcDbCircle
 10
932.9969623382785
 20
1142.014530754661
 30
0.0
 40
141.308884614809
100
AcDbArc
 50
155.9938542955348
 51
181.3550504406905
  0
POLYLINE
  5
43D
330
1F
100
AcDbEntity
  8
0
  6
CONTINUOUS
100
AcDb2dPolyline
 66
     1
 10
0.0
 20
0.0
 30
0.0
  0
VERTEX
  5
84D
330
43D
100
AcDbEntity
  8
0
  6
CONTINUOUS
100
AcDbVertex
100
AcDb2dVertex
 10
724.7365215186219
 20
1168.160157696739
 30
0.0
  0
VERTEX
  5
84E
330
43D
100
AcDbEntity
  8
0
  6
CONTINUOUS
100
AcDbVertex
100
AcDb2dVertex
 10
724.4345366033376
 20
1166.517803591803
 30
0.0
 42
-0.5016049534703276
  0
VERTEX
  5
84F
330
43D
100
AcDbEntity
  8
0
  6
CONTINUOUS
100
AcDbVertex
100
AcDb2dVertex
 10
722.4374025504439
 20
1156.819205996483
 30
0.0
 42
-0.5731451722580876
  0
VERTEX
  5
850
330
43D
100
AcDbEntity
  8
0
  6
CONTINUOUS
100
AcDbVertex
100
AcDb2dVertex
 10
704.6184803536598
 20
1168.058476705057
 30
0.0
 42
-0.1994211041236551
  0
VERTEX
  5
851
330
43D
100
AcDbEntity
  8
0
  6
CONTINUOUS
100
AcDbVertex
100
AcDb2dVertex
 10
709.3030745363575
 20
1179.573573885728
 30
0.0
 42
-0.1912321573076029
  0
VERTEX
  5
852
330
43D
100
AcDbEntity
  8
0
  6
CONTINUOUS
100
AcDbVertex
100
AcDb2dVertex
 10
724.6444008517573
 20
1185.67287128956
 30
0.0
 42
-0.143630861908326
  0
VERTEX
  5
853
330
43D
100
AcDbEntity
  8
0
  6
CONTINUOUS
100
AcDbVertex
100
AcDb2dVertex
 10
743.0546210110624
 20
1180.188265343606
 30
0.0
 42
-0.2016233873508618
  0
VERTEX
  5
854
330
43D
100
AcDbEntity
  8
0
  6
CONTINUOUS
100
AcDbVertex
100
AcDb2dVertex
 10
765.7862131094443
 20
1147.557615537955
 30
0.0
 42
-0.0305957625576678
  0
VERTEX
  5
855
330
43D
100
AcDbEntity
  8
0
  6
CONTINUOUS
100
AcDbVertex
100
AcDb2dVertex
 10
767.2414807150926
 20
1138.672874205843
 30
0.0
 42
-0.0305957625576678
  0
SEQEND
  5
856
330
43D
100
AcDbEntity
  8
0
  6
CONTINUOUS
  0
ARC
  5
43E
330
1F
100
AcDbEntity
  8
0
  6
CONTINUOUS
100
AcDbCircle
 10
638.2367717454035
 20
1142.014530754661
 30
0.0
 40
135.308884614809
100
AcDbArc
 50
358.6449495593094
 51
23.92353773249388
  0
ARC
  5
43F
330
1F
100
AcDbEntity
  8
0
  6
CONTINUOUS
100
AcDbCircle
 10
638.2367717454035
 20
1142.014530754661
 30
0.0
 40
141.308884614809
100
AcDbArc
 50
358.6449495593094
 51
24.00614570446519
  0
POLYLINE
  5
440
330
1F
100
AcDbEntity
  8
0
  6
CONTINUOUS
100
AcDb2dPolyline
 66
     1
 10
0.0
 20
0.0
 30
0.0
  0
VERTEX
  5
857
330
440
100
AcDbEntity
  8
0
  6
CONTINUOUS
100
AcDbVertex
100
AcDb2dVertex
 10
724.7365215186219
 20
1168.160157696739
 30
0.0
 42
-0.6244873880122032
  0
VERTEX
  5
858
330
440
100
AcDbEntity
  8
0
  6
CONTINUOUS
100
AcDbVertex
100
AcDb2dVertex
 10
725.2160059688321
 20
1151.501346356061
 30
0.0
 42
-0.5712699294635224
  0
VERTEX
  5
859
330
440
100
AcDbEntity
  8
0
  6
CONTINUOUS
100
AcDbVertex
100
AcDb2dVertex
 10
698.6180924772197
 20
1168.132437898359
 30
0.0
 42
-0.1992749000703595
  0
VERTEX
  5
85A
330
440
100
AcDbEntity
  8
0
  6
CONTINUOUS
100
AcDbVertex
100
AcDb2dVertex
 10
705.1120448241126
 20
1183.868147392241
 30
0.0
 42
-0.1922899288213652
  0
VERTEX
  5
85B
330
440
100
AcDbEntity
  8
0
  6
CONTINUOUS
100
AcDbVertex
100
AcDb2dVertex
 10
724.655823932313
 20
1191.672874205843
 30
0.0
 42
-0.1435180749715141
  0
VERTEX
  5
85C
330
440
100
AcDbEntity
  8
0
  6
CONTINUOUS
100
AcDbVertex
100
AcDb2dVertex
 10
746.2902720385027
 20
1185.241127533693
 30
0.0
 42
-0.2013051193684176
  0
VERTEX
  5
85D
330
440
100
AcDbEntity
  8
0
  6
CONTINUOUS
100
AcDbVertex
100
AcDb2dVertex
 10
771.6454953775174
 20
1148.849973711433
 30
0.0
 42
-0.0323879793785061
  0
VERTEX
  5
85E
330
440
100
AcDbEntity
  8
0
  6
CONTINUOUS
100
AcDbVertex
100
AcDb2dVertex
 10
773.2699843366936
 20
1138.672874205843
 30
0.0
 42
-0.0323879793785061
  0
SEQEND
  5
85F
330
440
100
AcDbEntity
  8
0
  6
CONTINUOUS
  0
MTEXT
  5
441
330
1F
100
AcDbEntity
  8
0
 62
   255
100
AcDbMText
 10
1302.992246054706
 20
1131.672874205844
 30
0.0
 40
30.0
 41
0.0
 71
     5
 72
     1
  1
1260
  7
ｽﾀｲﾙ2
 11
0.0000000000000001
 21
1.0
 31
0.0
1001
ACAD
1000
MTEXTBEGIN
1070
    73
1070
     1
1070
    44
1040
1.0
1070
    74
1070
     0
1000
MTEXTEND
  0
LINE
  5
442
330
1F
100
AcDbEntity
  8
0
100
AcDbLine
 10
763.2414807150926
 20
1138.672874205843
 30
0.0
 11
807.9922533685895
 21
1138.672874205843
 31
0.0
  0
LINE
  5
443
330
1F
100
AcDbEntity
  8
0
100
AcDbLine
 10
763.2414807150926
 20
1134.672874205843
 30
0.0
 11
807.9922533685895
 21
1134.672874205843
 31
0.0
  0
LINE
  5
444
330
1F
100
AcDbEntity
  8
0
100
AcDbLine
 10
807.9922533685895
 20
1124.672874205843
 30
0.0
 11
763.2414807150926
 21
1124.672874205843
 31
0.0
  0
LINE
  5
445
330
1F
100
AcDbEntity
  8
0
100
AcDbLine
 10
763.2414807150926
 20
1128.672874205842
 30
0.0
 11
807.9922533685895
 21
1128.672874205842
 31
0.0
  0
LINE
  5
446
330
1F
100
AcDbEntity
  8
0
100
AcDbLine
 10
763.2414807150926
 20
1134.672874205843
 30
0.0
 11
763.2414807150926
 21
1138.672874205843
 31
0.0
  0
LINE
  5
447
330
1F
100
AcDbEntity
  8
0
100
AcDbLine
 10
763.2414807150926
 20
1124.672874205843
 30
0.0
 11
763.2414807150926
 21
1128.672874205843
 31
0.0
  0
ARC
  5
448
330
1F
100
AcDbEntity
  8
0
100
AcDbCircle
 10
763.2414807150926
 20
1131.672874205843
 30
0.0
 40
3.000000000000056
100
AcDbArc
 50
90.0
 51
270.0
  0
LINE
  5
449
330
1F
100
AcDbEntity
  8
0
100
AcDbLine
 10
807.9922533685895
 20
1134.672874205843
 30
0.0
 11
807.9922533685895
 21
1138.672874205843
 31
0.0
  0
LINE
  5
44A
330
1F
100
AcDbEntity
  8
0
100
AcDbLine
 10
807.9922533685895
 20
1124.672874205843
 30
0.0
 11
807.9922533685895
 21
1128.672874205843
 31
0.0
  0
ARC
  5
44B
330
1F
100
AcDbEntity
  8
0
100
AcDbCircle
 10
807.9922533685895
 20
1131.672874205843
 30
0.0
 40
3.000000000000056
100
AcDbArc
 50
270.0
 51
90.0
  0
ARC
  5
44C
330
1F
100
AcDbEntity
  8
0
100
AcDbCircle
 10
1057.902604680559
 20
1115.445820384976
 30
0.0
 40
51.17711403260225
100
AcDbArc
 50
338.8019222471191
 51
21.19807775288084
  0
ARC
  5
44D
330
1F
100
AcDbEntity
  8
0
100
AcDbCircle
 10
1207.520459239822
 20
1115.445820384976
 30
0.0
 40
74.24670187285427
100
AcDbArc
 50
165.5674138148628
 51
194.4325861851371
  0
LINE
  5
44E
330
1F
100
AcDbEntity
  8
0
100
AcDbLine
 10
1112.566060453617
 20
1089.788160514661
 30
0.0
 11
1130.979489355122
 21
1088.519163913103
 31
0.0
  0
LINE
  5
44F
330
1F
100
AcDbEntity
  8
0
100
AcDbLine
 10
1130.979489355122
 20
1085.981159265311
 30
0.0
 11
1111.296164112755
 21
1087.884659889987
 31
0.0
  0
LINE
  5
450
330
1F
100
AcDbEntity
  8
0
100
AcDbLine
 10
1110.661847750896
 20
1114.581438693558
 30
0.0
 11
1125.900564960655
 21
1115.850435295117
 31
0.0
  0
LINE
  5
451
330
1F
100
AcDbEntity
  8
0
100
AcDbLine
 10
1123.995710729243
 20
1113.312442091999
 30
0.0
 11
1110.661847750896
 21
1110.774437444208
 31
0.0
  0
LINE
  5
452
330
1F
100
AcDbEntity
  8
0
100
AcDbLine
 10
1134.161257862571
 20
1153.360872028685
 30
0.0
 11
1114.477932620204
 21
1155.898876676474
 31
0.0
  0
ARC
  5
453
330
1F
100
AcDbEntity
  8
0
100
AcDbCircle
 10
1188.488160196
 20
1181.337840063822
 30
0.0
 40
57.11966942967778
100
AcDbArc
 50
157.7625217861415
 51
202.2374782138584
  0
LINE
  5
454
330
1F
100
AcDbEntity
  8
0
100
AcDbLine
 10
1128.297044018916
 20
1180.118066993644
 30
0.0
 11
1106.580850409154
 21
1182.641422462135
 31
0.0
  0
LINE
  5
455
330
1F
100
AcDbEntity
  8
0
100
AcDbLine
 10
1106.580850409154
 20
1182.641422462135
 30
0.0
 11
1130.317140133112
 21
1183.650773805268
 31
0.0
  0
ARC
  5
456
330
1F
100
AcDbEntity
  8
0
100
AcDbCircle
 10
1174.542102889332
 20
1217.610163641409
 30
0.0
 40
41.59279291423044
100
AcDbArc
 50
159.3683311470854
 51
200.6316688529145
  0
ARC
  5
457
330
1F
100
AcDbEntity
  8
0
100
AcDbCircle
 10
1082.379789295831
 20
1217.610163641409
 30
0.0
 40
27.47268131795497
100
AcDbArc
 50
327.7604243754351
 51
32.23957562456488
  0
LINE
  5
458
330
1F
100
AcDbEntity
  8
0
100
AcDbLine
 10
1134.862390410511
 20
1218.52330535502
 30
0.0
 11
1110.116042909328
 21
1218.52330535502
 31
0.0
  0
LINE
  5
459
330
1F
100
AcDbEntity
  8
0
100
AcDbLine
 10
1111.631119855039
 20
1215.999938441859
 30
0.0
 11
1134.862390410511
 21
1218.52330535502
 31
0.0
  0
MTEXT
  5
45A
330
1F
100
AcDbEntity
  8
0
 62
   255
100
AcDbMText
 10
1377.626515373787
 20
1146.672874205842
 30
0.0
 40
40.0
 41
0.0
 71
     5
 72
     1
  1
1450
  7
CENTURY
 11
0.0000000000000001
 21
1.0
 31
0.0
1001
ACAD
1000
MTEXTBEGIN
1070
    73
1070
     1
1070
    44
1040
1.0
1070
    74
1070
     0
1000
MTEXTEND
  0
ARC
  5
45B
330
1F
100
AcDbEntity
  8
0
100
AcDbCircle
 10
1064.675380449662
 20
1814.921702902245
 30
0.0
 40
70.94624093454081
100
AcDbArc
 50
359.336683826081
 51
33.51802661062497
  0
ARC
  5
45C
330
1F
100
AcDbEntity
  8
0
100
AcDbCircle
 10
1086.6931120687
 20
1835.368702107013
 30
0.0
 40
34.74215562530072
100
AcDbArc
 50
133.682446508674
 51
175.346802360932
  0
ARC
  5
45D
330
1F
100
AcDbEntity
  8
0
100
AcDbCircle
 10
1090.55043722214
 20
1831.387567706761
 30
0.0
 40
40.28535091271469
100
AcDbArc
 50
34.31507684221408
 51
133.7392253336317
  0
ARC
  5
45E
330
1F
100
AcDbEntity
  8
0
100
AcDbCircle
 10
506.5583536340272
 20
1814.921702902245
 30
0.0
 40
70.94624093454081
100
AcDbArc
 50
146.481973389375
 51
180.6633161739189
  0
ARC
  5
45F
330
1F
100
AcDbEntity
  8
0
100
AcDbCircle
 10
484.5406220149889
 20
1835.368702107013
 30
0.0
 40
34.74215562530072
100
AcDbArc
 50
4.653197639067948
 51
46.31755349132595
  0
ARC
  5
460
330
1F
100
AcDbEntity
  8
0
100
AcDbCircle
 10
480.683296861549
 20
1831.387567706761
 30
0.0
 40
40.28535091271469
100
AcDbArc
 50
46.2607746663683
 51
145.6849231577858
  0
LINE
  5
461
330
1F
100
AcDbEntity
  8
0
100
AcDbLine
 10
1323.270391750069
 20
1761.672874205839
 30
0.0
 11
1323.270391750069
 21
1871.672874205842
 31
0.0
  0
ARC
  5
462
330
1F
100
AcDbEntity
  8
0
100
AcDbCircle
 10
1003.639107548864
 20
1569.578395427843
 30
0.0
 40
106.6116003211486
100
AcDbArc
 50
343.0452386242173
 51
16.95476137578272
  0
ARC
  5
463
330
1F
100
AcDbEntity
  8
0
100
AcDbCircle
 10
333.6391075488573
 20
1569.578395427843
 30
0.0
 40
106.6116003211486
100
AcDbArc
 50
343.0452386242173
 51
16.95476137578272
  0
LINE
  5
464
330
1F
100
AcDbEntity
  8
0
  6
CONTINUOUS
100
AcDbLine
 10
791.616867041841
 20
1731.672874205843
 30
0.0
 11
791.616867041841
 21
1451.411998613775
 31
0.0
  0
LINE
  5
465
330
1F
100
AcDbEntity
  8
0
  6
CONTINUOUS
100
AcDbLine
 10
779.616867041841
 20
1731.672874205842
 30
0.0
 11
779.616867041841
 21
1451.411998613775
 31
0.0
  0
ARC
  5
466
330
1F
100
AcDbEntity
  8
0
100
AcDbCircle
 10
387.902604680552
 20
1395.61343428541
 30
0.0
 40
51.17711403260225
100
AcDbArc
 50
338.8019222471191
 51
21.19807775288084
  0
ARC
  5
467
330
1F
100
AcDbEntity
  8
0
100
AcDbCircle
 10
537.5204592398149
 20
1395.61343428541
 30
0.0
 40
74.24670187285427
100
AcDbArc
 50
165.5674138148628
 51
194.4325861851371
  0
ARC
  5
468
330
1F
100
AcDbEntity
  8
0
100
AcDbCircle
 10
407.2011572341288
 20
1306.21240568456
 30
0.0
 40
30.75581818224811
100
AcDbArc
 50
337.5050578832839
 51
22.49494211671605
  0
LINE
  5
469
330
1F
100
AcDbEntity
  8
0
100
AcDbLine
 10
460.3156237925431
 20
1265.509701055038
 30
0.0
 11
437.0843337968035
 21
1267.023728069738
 31
0.0
  0
LINE
  5
46A
330
1F
100
AcDbEntity
  8
0
100
AcDbLine
 10
458.2955082380867
 20
1259.95830300182
 30
0.0
 11
435.5692568510931
 21
1262.481669914982
 31
0.0
  0
LINE
  5
46B
330
1F
100
AcDbEntity
  8
0
100
AcDbLine
 10
440.033966116287
 20
1305.118403829945
 30
0.0
 11
449.558140072062
 21
1303.214903205271
 31
0.0
  0
LINE
  5
46C
330
1F
100
AcDbEntity
  8
0
100
AcDbLine
 10
438.1291118848675
 20
1301.945906603712
 30
0.0
 11
464.1618993912634
 21
1300.676910002152
 31
0.0
  0
ARC
  5
46D
330
1F
100
AcDbEntity
  8
0
100
AcDbCircle
 10
520.8613081565053
 20
1339.39568657924
 30
0.0
 40
59.25027723911768
100
AcDbArc
 50
158.8106919803579
 51
201.189308019642
  0
LINE
  5
46E
330
1F
100
AcDbEntity
  8
0
100
AcDbLine
 10
438.1233575668375
 20
1342.622328545527
 30
0.0
 11
460.9814139412192
 21
1336.27733409306
 31
0.0
  0
LINE
  5
46F
330
1F
100
AcDbEntity
  8
0
100
AcDbLine
 10
455.901848018053
 20
1336.27733409306
 30
0.0
 11
438.1233575668375
 21
1339.449831319293
 31
0.0
  0
ARC
  5
470
330
1F
100
AcDbEntity
  8
0
100
AcDbCircle
 10
423.377961608232
 20
1368.959933506466
 30
0.0
 40
14.70319572620801
100
AcDbArc
 50
326.3458272490087
 51
33.6541727509913
  0
ARC
  5
471
330
1F
100
AcDbEntity
  8
0
100
AcDbCircle
 10
482.5933051231768
 20
1368.959933506466
 30
0.0
 40
18.83062952425546
100
AcDbArc
 50
154.3603398614806
 51
205.6396601385193
  0
LINE
  5
472
330
1F
100
AcDbEntity
  8
0
100
AcDbLine
 10
442.5660604536097
 20
1369.955774415095
 30
0.0
 11
460.9794893551152
 21
1368.686777813537
 31
0.0
  0
LINE
  5
473
330
1F
100
AcDbEntity
  8
0
100
AcDbLine
 10
460.9794893551152
 20
1366.148773165745
 30
0.0
 11
441.2961641127476
 21
1368.052273790421
 31
0.0
  0
ARC
  5
474
330
1F
100
AcDbEntity
  8
0
100
AcDbCircle
 10
382.7455738876815
 20
1487.560770643099
 30
0.0
 40
57.11966942967778
100
AcDbArc
 50
337.7625217861409
 51
22.23747821385844
  0
ARC
  5
475
330
1F
100
AcDbEntity
  8
0
100
AcDbCircle
 10
396.0352675462709
 20
1440.031388234242
 30
0.0
 40
47.3092865871033
100
AcDbArc
 50
326.7886702848471
 51
33.21132971515288
  0
LINE
  5
476
330
1F
100
AcDbEntity
  8
0
100
AcDbLine
 10
440.6618477508891
 20
1394.749052593992
 30
0.0
 11
455.9005649606478
 21
1396.018049195551
 31
0.0
  0
LINE
  5
477
330
1F
100
AcDbEntity
  8
0
100
AcDbLine
 10
453.9957107292357
 20
1393.480055992434
 30
0.0
 11
440.6618477508891
 21
1390.942051344642
 31
0.0
  0
LINE
  5
478
330
1F
100
AcDbEntity
  8
0
100
AcDbLine
 10
445.7478289610516
 20
1442.411485029377
 30
0.0
 11
462.8913615217024
 21
1434.162989952234
 31
0.0
  0
LINE
  5
479
330
1F
100
AcDbEntity
  8
0
100
AcDbLine
 10
464.1612578625645
 20
1433.528485929119
 30
0.0
 11
444.4779326201969
 21
1436.066490576908
 31
0.0
  0
LINE
  5
47A
330
1F
100
AcDbEntity
  8
0
100
AcDbLine
 10
464.1612578625645
 20
1485.623725686759
 30
0.0
 11
439.3983666970306
 21
1487.527226311435
 31
0.0
  0
LINE
  5
47B
330
1F
100
AcDbEntity
  8
0
100
AcDbLine
 10
445.1128710704942
 20
1482.451228460524
 30
0.0
 11
464.1612578625645
 21
1485.623725686759
 31
0.0
  0
LINE
  5
47C
330
1F
100
AcDbEntity
  8
0
100
AcDbLine
 10
439.3964421109266
 20
1525.020267144582
 30
0.0
 11
460.3496636941563
 21
1522.482273941463
 31
0.0
  0
LINE
  5
47D
330
1F
100
AcDbEntity
  8
0
100
AcDbLine
 10
457.1749325621421
 20
1521.213277339905
 30
0.0
 11
439.3964421109266
 21
1521.213277339905
 31
0.0
  0
ARC
  5
47E
330
1F
100
AcDbEntity
  8
0
100
AcDbCircle
 10
396.6916311943496
 20
1523.833094220686
 30
0.0
 40
41.59279291423044
100
AcDbArc
 50
339.3683311470855
 51
20.63166885291452
  0
ARC
  5
47F
330
1F
100
AcDbEntity
  8
0
100
AcDbCircle
 10
488.8539447878574
 20
1523.833094220686
 30
0.0
 40
27.47268131795497
100
AcDbArc
 50
147.7604243754351
 51
212.2395756245648
  0
ARC
  5
480
330
1F
100
AcDbEntity
  8
0
100
AcDbCircle
 10
1207.520459239822
 20
1395.61343428541
 30
0.0
 40
74.24670187285427
100
AcDbArc
 50
165.5674138148628
 51
194.4325861851371
  0
ARC
  5
481
330
1F
100
AcDbEntity
  8
0
100
AcDbCircle
 10
1057.902604680559
 20
1395.61343428541
 30
0.0
 40
51.17711403260225
100
AcDbArc
 50
338.8019222471191
 51
21.19807775288084
  0
ARC
  5
482
330
1F
100
AcDbEntity
  8
0
  6
CONTINUOUS
100
AcDbCircle
 10
832.8922297784956
 20
1336.85594644689
 30
0.0
 40
44.35657218847958
100
AcDbArc
 50
331.8719099882859
 51
90.25584162028195
  0
ARC
  5
483
330
1F
100
AcDbEntity
  8
0
  6
CONTINUOUS
100
AcDbCircle
 10
738.3415043051863
 20
1336.85594644689
 30
0.0
 40
44.35657218847958
100
AcDbArc
 50
89.74415837971804
 51
208.128090011714
  0
LINE
  5
484
330
1F
100
AcDbEntity
  8
0
  6
CONTINUOUS
100
AcDbLine
 10
791.616867041841
 20
1437.411998613774
 30
0.0
 11
791.616867041841
 21
1347.667800271477
 31
0.0
  0
LINE
  5
485
330
1F
100
AcDbEntity
  8
0
  6
CONTINUOUS
100
AcDbLine
 10
779.616867041841
 20
1437.411998613774
 30
0.0
 11
779.616867041841
 21
1347.667800271477
 31
0.0
  0
POLYLINE
  5
486
330
1F
100
AcDbEntity
  8
0
  6
CONTINUOUS
100
AcDb2dPolyline
 66
     1
 10
0.0
 20
0.0
 30
0.0
  0
VERTEX
  5
860
330
486
100
AcDbEntity
  8
0
  6
CONTINUOUS
100
AcDbVertex
100
AcDb2dVertex
 10
852.1518241843805
 20
1403.985521218782
 30
0.0
 42
-0.6244873880121949
  0
VERTEX
  5
861
330
486
100
AcDbEntity
  8
0
  6
CONTINUOUS
100
AcDbVertex
100
AcDb2dVertex
 10
847.0045967457773
 20
1419.836450223658
 30
0.0
 42
-0.5712699294635224
  0
VERTEX
  5
862
330
486
100
AcDbEntity
  8
0
  6
CONTINUOUS
100
AcDbVertex
100
AcDb2dVertex
 10
877.2073338963382
 20
1411.360786437876
 30
0.0
 42
-0.1992749000703595
  0
VERTEX
  5
863
330
486
100
AcDbEntity
  8
0
  6
CONTINUOUS
100
AcDbVertex
100
AcDb2dVertex
 10
875.4031108108174
 20
1394.433626327058
 30
0.0
 42
-0.1922899288213652
  0
VERTEX
  5
864
330
486
100
AcDbEntity
  8
0
  6
CONTINUOUS
100
AcDbVertex
100
AcDb2dVertex
 10
858.8447853339093
 20
1381.445365478664
 30
0.0
 42
-0.1435180749715141
  0
VERTEX
  5
865
330
486
100
AcDbEntity
  8
0
  6
CONTINUOUS
100
AcDbVertex
100
AcDb2dVertex
 10
836.2746832502452
 20
1381.530230354447
 30
0.0
 42
-0.2013051193684176
  0
VERTEX
  5
866
330
486
100
AcDbEntity
  8
0
  6
CONTINUOUS
100
AcDbVertex
100
AcDb2dVertex
 10
801.7047555893514
 20
1409.317341190353
 30
0.0
 42
-0.0525451820212675
  0
VERTEX
  5
867
330
486
100
AcDbEntity
  8
0
  6
CONTINUOUS
100
AcDbVertex
100
AcDb2dVertex
 10
795.1184263983959
 20
1424.769837886993
 30
0.0
  0
SEQEND
  5
868
330
486
100
AcDbEntity
  8
0
  6
CONTINUOUS
  0
POLYLINE
  5
487
330
1F
100
AcDbEntity
  8
0
  6
CONTINUOUS
100
AcDb2dPolyline
 66
     1
 10
0.0
 20
0.0
 30
0.0
  0
VERTEX
  5
869
330
487
100
AcDbEntity
  8
0
  6
CONTINUOUS
100
AcDbVertex
100
AcDb2dVertex
 10
852.1518241843805
 20
1403.985521218782
 30
0.0
  0
VERTEX
  5
86A
330
487
100
AcDbEntity
  8
0
  6
CONTINUOUS
100
AcDbVertex
100
AcDb2dVertex
 10
851.9795179068241
 20
1405.646494560464
 30
0.0
 42
-0.5016049534703276
  0
VERTEX
  5
86B
330
487
100
AcDbEntity
  8
0
  6
CONTINUOUS
100
AcDbVertex
100
AcDb2dVertex
 10
851.1671811786582
 20
1415.515205154115
 30
0.0
 42
-0.5731451722580876
  0
VERTEX
  5
86C
330
487
100
AcDbEntity
  8
0
  6
CONTINUOUS
100
AcDbVertex
100
AcDb2dVertex
 10
871.4285372121084
 20
1409.743494315783
 30
0.0
 42
-0.1994211041236551
  0
VERTEX
  5
86D
330
487
100
AcDbEntity
  8
0
  6
CONTINUOUS
100
AcDbVertex
100
AcDb2dVertex
 10
870.1730697833845
 20
1397.375524099442
 30
0.0
 42
-0.1912321573076029
  0
VERTEX
  5
86E
330
487
100
AcDbEntity
  8
0
  6
CONTINUOUS
100
AcDbVertex
100
AcDb2dVertex
 10
857.167589796707
 20
1387.206197068997
 30
0.0
 42
-0.143630861908326
  0
VERTEX
  5
86F
330
487
100
AcDbEntity
  8
0
  6
CONTINUOUS
100
AcDbVertex
100
AcDb2dVertex
 10
837.9579517403108
 20
1387.289350172071
 30
0.0
 42
-0.2016233873508618
  0
VERTEX
  5
870
330
487
100
AcDbEntity
  8
0
  6
CONTINUOUS
100
AcDbVertex
100
AcDb2dVertex
 10
806.9637202017329
 20
1412.206055359537
 30
0.0
 42
-0.0544492341104313
  0
VERTEX
  5
871
330
487
100
AcDbEntity
  8
0
  6
CONTINUOUS
100
AcDbVertex
100
AcDb2dVertex
 10
800.7377930690635
 20
1426.934048218997
 30
0.0
 42
-0.056122523359716
  0
SEQEND
  5
872
330
487
100
AcDbEntity
  8
0
  6
CONTINUOUS
  0
POLYLINE
  5
488
330
1F
100
AcDbEntity
  8
0
  6
CONTINUOUS
100
AcDb2dPolyline
 66
     1
 10
0.0
 20
0.0
 30
0.0
  0
VERTEX
  5
873
330
488
100
AcDbEntity
  8
0
  6
CONTINUOUS
100
AcDbVertex
100
AcDb2dVertex
 10
719.0819098993088
 20
1403.985521218782
 30
0.0
  0
VERTEX
  5
874
330
488
100
AcDbEntity
  8
0
  6
CONTINUOUS
100
AcDbVertex
100
AcDb2dVertex
 10
719.2542161768578
 20
1405.646494560464
 30
0.0
 42
0.5016049534703276
  0
VERTEX
  5
875
330
488
100
AcDbEntity
  8
0
  6
CONTINUOUS
100
AcDbVertex
100
AcDb2dVertex
 10
720.0665529050311
 20
1415.515205154115
 30
0.0
 42
0.5731451722580876
  0
VERTEX
  5
876
330
488
100
AcDbEntity
  8
0
  6
CONTINUOUS
100
AcDbVertex
100
AcDb2dVertex
 10
699.8051968715735
 20
1409.743494315783
 30
0.0
 42
0.1994211041236551
  0
VERTEX
  5
877
330
488
100
AcDbEntity
  8
0
  6
CONTINUOUS
100
AcDbVertex
100
AcDb2dVertex
 10
701.0606643003048
 20
1397.375524099442
 30
0.0
 42
0.1912321573076029
  0
VERTEX
  5
878
330
488
100
AcDbEntity
  8
0
  6
CONTINUOUS
100
AcDbVertex
100
AcDb2dVertex
 10
714.066144286975
 20
1387.206197068997
 30
0.0
 42
0.143630861908326
  0
VERTEX
  5
879
330
488
100
AcDbEntity
  8
0
  6
CONTINUOUS
100
AcDbVertex
100
AcDb2dVertex
 10
733.2757823433712
 20
1387.289350172071
 30
0.0
 42
0.2016233873508618
  0
VERTEX
  5
87A
330
488
100
AcDbEntity
  8
0
  6
CONTINUOUS
100
AcDbVertex
100
AcDb2dVertex
 10
764.2700138819564
 20
1412.206055359537
 30
0.0
 42
0.0544492341104313
  0
VERTEX
  5
87B
330
488
100
AcDbEntity
  8
0
  6
CONTINUOUS
100
AcDbVertex
100
AcDb2dVertex
 10
770.4959410146184
 20
1426.934048218997
 30
0.0
 42
0.056122523359716
  0
SEQEND
  5
87C
330
488
100
AcDbEntity
  8
0
  6
CONTINUOUS
  0
POLYLINE
  5
489
330
1F
100
AcDbEntity
  8
0
  6
CONTINUOUS
100
AcDb2dPolyline
 66
     1
 10
0.0
 20
0.0
 30
0.0
  0
VERTEX
  5
87D
330
489
100
AcDbEntity
  8
0
  6
CONTINUOUS
100
AcDbVertex
100
AcDb2dVertex
 10
719.0819098993088
 20
1403.985521218782
 30
0.0
 42
0.6244873880121949
  0
VERTEX
  5
87E
330
489
100
AcDbEntity
  8
0
  6
CONTINUOUS
100
AcDbVertex
100
AcDb2dVertex
 10
724.2291373379121
 20
1419.836450223658
 30
0.0
 42
0.5712699294635224
  0
VERTEX
  5
87F
330
489
100
AcDbEntity
  8
0
  6
CONTINUOUS
100
AcDbVertex
100
AcDb2dVertex
 10
694.0264001873511
 20
1411.360786437876
 30
0.0
 42
0.1992749000703595
  0
VERTEX
  5
880
330
489
100
AcDbEntity
  8
0
  6
CONTINUOUS
100
AcDbVertex
100
AcDb2dVertex
 10
695.8306232728719
 20
1394.433626327058
 30
0.0
 42
0.1922899288213652
  0
VERTEX
  5
881
330
489
100
AcDbEntity
  8
0
  6
CONTINUOUS
100
AcDbVertex
100
AcDb2dVertex
 10
712.3889487497799
 20
1381.445365478664
 30
0.0
 42
0.1435180749715141
  0
VERTEX
  5
882
330
489
100
AcDbEntity
  8
0
  6
CONTINUOUS
100
AcDbVertex
100
AcDb2dVertex
 10
734.9590508334367
 20
1381.530230354447
 30
0.0
 42
0.2013051193684176
  0
VERTEX
  5
883
330
489
100
AcDbEntity
  8
0
  6
CONTINUOUS
100
AcDbVertex
100
AcDb2dVertex
 10
769.5289784943379
 20
1409.317341190353
 30
0.0
 42
0.0525451820212675
  0
VERTEX
  5
884
330
489
100
AcDbEntity
  8
0
  6
CONTINUOUS
100
AcDbVertex
100
AcDb2dVertex
 10
776.1153076852933
 20
1424.769837886993
 30
0.0
  0
SEQEND
  5
885
330
489
100
AcDbEntity
  8
0
  6
CONTINUOUS
  0
ARC
  5
48A
330
1F
100
AcDbEntity
  8
0
100
AcDbCircle
 10
1077.201157234136
 20
1306.21240568456
 30
0.0
 40
30.75581818224811
100
AcDbArc
 50
337.5050578832839
 51
22.49494211671605
  0
ARC
  5
48B
330
1F
100
AcDbEntity
  8
0
  6
CONTINUOUS
100
AcDbCircle
 10
818.5877510354403
 20
1333.92107362276
 30
0.0
 40
19.7020449873939
100
AcDbArc
 50
209.6009041724943
 51
307.2767026925393
  0
ARC
  5
48C
330
1F
100
AcDbEntity
  8
0
  6
CONTINUOUS
100
AcDbCircle
 10
819.0349349452153
 20
1334.527179069064
 30
0.0
 40
26.38058376875362
100
AcDbArc
 50
209.5252795627124
 51
306.5497067147593
  0
ARC
  5
48D
330
1F
100
AcDbEntity
  8
0
  6
CONTINUOUS
100
AcDbCircle
 10
752.1987991384739
 20
1334.527179069064
 30
0.0
 40
26.38058376875362
100
AcDbArc
 50
233.4502932852405
 51
330.4747204372876
  0
ARC
  5
48E
330
1F
100
AcDbEntity
  8
0
  6
CONTINUOUS
100
AcDbCircle
 10
752.645983048249
 20
1333.92107362276
 30
0.0
 40
19.7020449873939
100
AcDbArc
 50
232.7232973074607
 51
330.3990958275055
  0
LINE
  5
48F
330
1F
100
AcDbEntity
  8
0
100
AcDbLine
 10
1128.295508238094
 20
1259.95830300182
 30
0.0
 11
1105.5692568511
 21
1262.481669914982
 31
0.0
  0
LINE
  5
490
330
1F
100
AcDbEntity
  8
0
100
AcDbLine
 10
1130.31562379255
 20
1265.509701055038
 30
0.0
 11
1107.08433379681
 21
1267.023728069738
 31
0.0
  0
LINE
  5
491
330
1F
100
AcDbEntity
  8
0
100
AcDbLine
 10
1108.129111884875
 20
1301.945906603712
 30
0.0
 11
1134.16189939127
 21
1300.676910002152
 31
0.0
  0
LINE
  5
492
330
1F
100
AcDbEntity
  8
0
100
AcDbLine
 10
1110.033966116294
 20
1305.118403829945
 30
0.0
 11
1119.558140072069
 21
1303.214903205271
 31
0.0
  0
ARC
  5
493
330
1F
100
AcDbEntity
  8
0
  6
CONTINUOUS
100
AcDbCircle
 10
832.8922297784956
 20
1336.85594644689
 30
0.0
 40
38.35657218847958
100
AcDbArc
 50
331.8450300399704
 51
90.31229057794458
  0
ARC
  5
494
330
1F
100
AcDbEntity
  8
0
  6
CONTINUOUS
100
AcDbCircle
 10
834.5952339255745
 20
1340.598347188812
 30
0.0
 40
42.97836688373009
100
AcDbArc
 50
156.3241931828178
 51
170.532470224828
  0
ARC
  5
495
330
1F
100
AcDbEntity
  8
0
  6
CONTINUOUS
100
AcDbCircle
 10
834.5952339255745
 20
1340.598347188812
 30
0.0
 40
36.97836688373008
100
AcDbArc
 50
156.3241931828178
 51
168.9784565766478
  0
ARC
  5
496
330
1F
100
AcDbEntity
  8
0
  6
CONTINUOUS
100
AcDbCircle
 10
736.6385001581147
 20
1340.598347188812
 30
0.0
 40
42.97836688373009
100
AcDbArc
 50
9.46752977517197
 51
23.67580681718223
  0
ARC
  5
497
330
1F
100
AcDbEntity
  8
0
  6
CONTINUOUS
100
AcDbCircle
 10
736.6385001581147
 20
1340.598347188812
 30
0.0
 40
36.97836688373008
100
AcDbArc
 50
11.02154342335215
 51
23.67580681718223
  0
ARC
  5
498
330
1F
100
AcDbEntity
  8
0
  6
CONTINUOUS
100
AcDbCircle
 10
738.3415043051863
 20
1336.85594644689
 30
0.0
 40
38.35657218847958
100
AcDbArc
 50
89.68770942205541
 51
208.1549699600296
  0
LINE
  5
499
330
1F
100
AcDbEntity
  8
0
100
AcDbLine
 10
768.9348147162018
 20
1337.667800271477
 30
0.0
 11
802.2989193674876
 21
1337.667800271477
 31
0.0
  0
LINE
  5
49A
330
1F
100
AcDbEntity
  8
0
100
AcDbLine
 10
768.9348147162018
 20
1343.667800271478
 30
0.0
 11
802.2989193674876
 21
1343.667800271478
 31
0.0
  0
LINE
  5
49B
330
1F
100
AcDbEntity
  8
0
100
AcDbLine
 10
768.9348147162018
 20
1347.667800271477
 30
0.0
 11
802.2989193674876
 21
1347.667800271477
 31
0.0
  0
LINE
  5
49C
330
1F
100
AcDbEntity
  8
0
100
AcDbLine
 10
802.2989193674876
 20
1333.667800271478
 30
0.0
 11
768.9348147162018
 21
1333.667800271478
 31
0.0
  0
LINE
  5
49D
330
1F
100
AcDbEntity
  8
0
100
AcDbLine
 10
768.9348147162018
 20
1333.667800271478
 30
0.0
 11
768.9348147162018
 21
1337.667800271478
 31
0.0
  0
LINE
  5
49E
330
1F
100
AcDbEntity
  8
0
100
AcDbLine
 10
768.9348147162018
 20
1343.667800271478
 30
0.0
 11
768.9348147162018
 21
1347.667800271477
 31
0.0
  0
ARC
  5
49F
330
1F
100
AcDbEntity
  8
0
100
AcDbCircle
 10
768.9348147162018
 20
1340.667800271478
 30
0.0
 40
3.000000000000056
100
AcDbArc
 50
90.0
 51
270.0
  0
ARC
  5
4A0
330
1F
100
AcDbEntity
  8
0
  6
CONTINUOUS
100
AcDbCircle
 10
747.8165605519389
 20
1331.710439927304
 30
0.0
 40
10.98638464699961
100
AcDbArc
 50
56.39627089675195
 51
141.8140803917345
  0
ARC
  5
4A1
330
1F
100
AcDbEntity
  8
0
  6
CONTINUOUS
100
AcDbCircle
 10
745.7922059489283
 20
1333.190793874002
 30
0.0
 40
13.29758727790373
100
AcDbArc
 50
44.93941112917666
 51
134.4307956864093
  0
LINE
  5
4A2
330
1F
100
AcDbEntity
  8
0
  6
CONTINUOUS
100
AcDbLine
 10
753.8969285399944
 20
1340.860837336248
 30
0.0
 11
755.204958070899
 21
1342.583659512548
 31
0.0
  0
ARC
  5
4A3
330
1F
100
AcDbEntity
  8
0
  6
CONTINUOUS
100
AcDbCircle
 10
749.5743242831013
 20
1328.012964936057
 30
0.0
 40
19.6644356743196
100
AcDbArc
 50
131.7377797667017
 51
228.2831806936048
  0
ARC
  5
4A4
330
1F
100
AcDbEntity
  8
0
  6
CONTINUOUS
100
AcDbCircle
 10
750.6681681235713
 20
1329.183813740922
 30
0.0
 40
14.79145401338622
100
AcDbArc
 50
140.9500733785048
 51
227.6990126929169
  0
ARC
  5
4A5
330
1F
100
AcDbEntity
  8
0
  6
CONTINUOUS
100
AcDbCircle
 10
736.6385001581147
 20
1340.598347188812
 30
0.0
 40
36.97836688373008
100
AcDbArc
 50
333.6565070697487
 51
349.1976466665025
  0
LINE
  5
4A6
330
1F
100
AcDbEntity
  8
0
  6
CONTINUOUS
100
AcDbLine
 10
817.3368055436949
 20
1340.860837336248
 30
0.0
 11
816.0287760127904
 21
1342.583659512548
 31
0.0
  0
ARC
  5
4A7
330
1F
100
AcDbEntity
  8
0
  6
CONTINUOUS
100
AcDbCircle
 10
823.4171735317504
 20
1331.710439927304
 30
0.0
 40
10.98638464699961
100
AcDbArc
 50
38.18591960826549
 51
123.603729103248
  0
ARC
  5
4A8
330
1F
100
AcDbEntity
  8
0
  6
CONTINUOUS
100
AcDbCircle
 10
825.4415281347609
 20
1333.190793874002
 30
0.0
 40
13.29758727790373
100
AcDbArc
 50
45.56920431359068
 51
135.0605888708233
  0
LINE
  5
4A9
330
1F
100
AcDbEntity
  8
0
100
AcDbLine
 10
802.2989193674876
 20
1333.667800271478
 30
0.0
 11
802.2989193674876
 21
1337.667800271478
 31
0.0
  0
LINE
  5
4AA
330
1F
100
AcDbEntity
  8
0
100
AcDbLine
 10
802.2989193674876
 20
1343.667800271478
 30
0.0
 11
802.2989193674876
 21
1347.667800271477
 31
0.0
  0
ARC
  5
4AB
330
1F
100
AcDbEntity
  8
0
100
AcDbCircle
 10
802.2989193674876
 20
1340.667800271478
 30
0.0
 40
3.000000000000056
100
AcDbArc
 50
270.0
 51
90.0
  0
ARC
  5
4AC
330
1F
100
AcDbEntity
  8
0
  6
CONTINUOUS
100
AcDbCircle
 10
821.6594098005881
 20
1328.012964936057
 30
0.0
 40
19.6644356743196
100
AcDbArc
 50
311.716819306395
 51
48.26222023329827
  0
ARC
  5
4AD
330
1F
100
AcDbEntity
  8
0
  6
CONTINUOUS
100
AcDbCircle
 10
820.5655659601179
 20
1329.183813740922
 30
0.0
 40
14.79145401338622
100
AcDbArc
 50
312.300987307083
 51
39.0499266214951
  0
ARC
  5
4AE
330
1F
100
AcDbEntity
  8
0
  6
CONTINUOUS
100
AcDbCircle
 10
834.5952339255745
 20
1340.598347188812
 30
0.0
 40
36.97836688373008
100
AcDbArc
 50
190.8023533334974
 51
206.3434929302512
  0
ARC
  5
4AF
330
1F
100
AcDbEntity
  8
0
  6
CONTINUOUS
100
AcDbCircle
 10
834.5952339255745
 20
1340.598347188812
 30
0.0
 40
42.97836688373009
100
AcDbArc
 50
189.2798434586562
 51
206.3434929302512
  0
ARC
  5
4B0
330
1F
100
AcDbEntity
  8
0
  6
CONTINUOUS
100
AcDbCircle
 10
736.6385001581147
 20
1340.598347188812
 30
0.0
 40
42.97836688373009
100
AcDbArc
 50
333.6565070697487
 51
350.7201565413438
  0
ARC
  5
4B1
330
1F
100
AcDbEntity
  8
0
  6
CONTINUOUS
100
AcDbCircle
 10
739.7005073086475
 20
1341.35522160356
 30
0.0
 40
33.8737589960223
100
AcDbArc
 50
24.44661768658927
 51
91.66842354342925
  0
ARC
  5
4B2
330
1F
100
AcDbEntity
  8
0
  6
CONTINUOUS
100
AcDbCircle
 10
739.7005073086475
 20
1341.35522160356
 30
0.0
 40
39.8737589960223
100
AcDbArc
 50
24.44661768658927
 51
91.66842354342925
  0
ARC
  5
4B3
330
1F
100
AcDbEntity
  8
0
  6
CONTINUOUS
100
AcDbCircle
 10
831.5332267750346
 20
1341.35522160356
 30
0.0
 40
39.8737589960223
100
AcDbArc
 50
88.33157645657074
 51
155.5533823134107
  0
ARC
  5
4B4
330
1F
100
AcDbEntity
  8
0
  6
CONTINUOUS
100
AcDbCircle
 10
831.5332267750346
 20
1341.35522160356
 30
0.0
 40
33.8737589960223
100
AcDbArc
 50
88.33157645657074
 51
155.5533823134107
  0
ARC
  5
4B5
330
1F
100
AcDbEntity
  8
0
100
AcDbCircle
 10
1190.861308156512
 20
1339.39568657924
 30
0.0
 40
59.25027723911768
100
AcDbArc
 50
158.8106919803579
 51
201.189308019642
  0
LINE
  5
4B6
330
1F
100
AcDbEntity
  8
0
100
AcDbLine
 10
1125.90184801806
 20
1336.27733409306
 30
0.0
 11
1108.123357566844
 21
1339.449831319293
 31
0.0
  0
LINE
  5
4B7
330
1F
100
AcDbEntity
  8
0
100
AcDbLine
 10
1108.123357566844
 20
1342.622328545527
 30
0.0
 11
1130.981413941226
 21
1336.27733409306
 31
0.0
  0
ARC
  5
4B8
330
1F
100
AcDbEntity
  8
0
100
AcDbCircle
 10
1152.593305123184
 20
1368.959933506466
 30
0.0
 40
18.83062952425546
100
AcDbArc
 50
154.3603398614806
 51
205.6396601385193
  0
ARC
  5
4B9
330
1F
100
AcDbEntity
  8
0
100
AcDbCircle
 10
1093.377961608239
 20
1368.959933506466
 30
0.0
 40
14.70319572620801
100
AcDbArc
 50
326.3458272490087
 51
33.6541727509913
  0
LINE
  5
4BA
330
1F
100
AcDbEntity
  8
0
100
AcDbLine
 10
1130.979489355122
 20
1366.148773165745
 30
0.0
 11
1111.296164112755
 21
1368.052273790421
 31
0.0
  0
LINE
  5
4BB
330
1F
100
AcDbEntity
  8
0
100
AcDbLine
 10
1112.566060453617
 20
1369.955774415095
 30
0.0
 11
1130.979489355122
 21
1368.686777813537
 31
0.0
  0
ARC
  5
4BC
330
1F
100
AcDbEntity
  8
0
100
AcDbCircle
 10
1052.745573887688
 20
1487.560770643099
 30
0.0
 40
57.11966942967778
100
AcDbArc
 50
337.7625217861409
 51
22.23747821385844
  0
POLYLINE
  5
4BD
330
1F
100
AcDbEntity
  8
0
  6
CONTINUOUS
100
AcDb2dPolyline
 66
     1
 10
0.0
 20
0.0
 30
0.0
  0
VERTEX
  5
886
330
4BD
100
AcDbEntity
  8
0
  6
CONTINUOUS
100
AcDbVertex
100
AcDb2dVertex
 10
831.6197446185251
 20
1474.012095709342
 30
0.0
  0
VERTEX
  5
887
330
4BD
100
AcDbEntity
  8
0
  6
CONTINUOUS
100
AcDbVertex
100
AcDb2dVertex
 10
832.3716218353801
 20
1472.521054950059
 30
0.0
 42
0.5016049534703276
  0
VERTEX
  5
888
330
4BD
100
AcDbEntity
  8
0
  6
CONTINUOUS
100
AcDbVertex
100
AcDb2dVertex
 10
837.0168680909847
 20
1463.77616918946
 30
0.0
 42
0.5731451722580876
  0
VERTEX
  5
889
330
4BD
100
AcDbEntity
  8
0
  6
CONTINUOUS
100
AcDbVertex
100
AcDb2dVertex
 10
850.9536754496075
 20
1479.57492214545
 30
0.0
 42
0.1994211041236551
  0
VERTEX
  5
88A
330
4BD
100
AcDbEntity
  8
0
  6
CONTINUOUS
100
AcDbVertex
100
AcDb2dVertex
 10
843.2184466108301
 20
1489.306783249504
 30
0.0
 42
0.1912321573076029
  0
VERTEX
  5
88B
330
4BD
100
AcDbEntity
  8
0
  6
CONTINUOUS
100
AcDbVertex
100
AcDb2dVertex
 10
826.7807774445318
 20
1490.843257888182
 30
0.0
 42
0.143630861908326
  0
VERTEX
  5
88C
330
4BD
100
AcDbEntity
  8
0
  6
CONTINUOUS
100
AcDbVertex
100
AcDb2dVertex
 10
810.657430141946
 20
1480.400328200755
 30
0.0
 42
0.1577079741972947
  0
VERTEX
  5
88D
330
4BD
100
AcDbEntity
  8
0
  6
CONTINUOUS
100
AcDbVertex
100
AcDb2dVertex
 10
798.1158813964357
 20
1451.411998613775
 30
0.0
 42
0.1577079741972947
  0
SEQEND
  5
88E
330
4BD
100
AcDbEntity
  8
0
  6
CONTINUOUS
  0
POLYLINE
  5
4BE
330
1F
100
AcDbEntity
  8
0
  6
CONTINUOUS
100
AcDb2dPolyline
 66
     1
 10
0.0
 20
0.0
 30
0.0
  0
VERTEX
  5
88F
330
4BE
100
AcDbEntity
  8
0
  6
CONTINUOUS
100
AcDbVertex
100
AcDb2dVertex
 10
831.6197446185251
 20
1474.012095709342
 30
0.0
 42
0.624487388012175
  0
VERTEX
  5
890
330
4BE
100
AcDbEntity
  8
0
  6
CONTINUOUS
100
AcDbVertex
100
AcDb2dVertex
 10
835.8467431346944
 20
1457.891351800742
 30
0.0
 42
0.5712699294635224
  0
VERTEX
  5
891
330
4BE
100
AcDbEntity
  8
0
  6
CONTINUOUS
100
AcDbVertex
100
AcDb2dVertex
 10
856.6908527815467
 20
1481.334160954625
 30
0.0
 42
0.1992749000703595
  0
VERTEX
  5
892
330
4BE
100
AcDbEntity
  8
0
  6
CONTINUOUS
100
AcDbVertex
100
AcDb2dVertex
 10
846.0318504841342
 20
1494.607052138665
 30
0.0
 42
0.1922899288213652
  0
VERTEX
  5
893
330
4BE
100
AcDbEntity
  8
0
  6
CONTINUOUS
100
AcDbVertex
100
AcDb2dVertex
 10
825.0816586747678
 20
1496.597661496585
 30
0.0
 42
0.1435180749715141
  0
VERTEX
  5
894
330
4BE
100
AcDbEntity
  8
0
  6
CONTINUOUS
100
AcDbVertex
100
AcDb2dVertex
 10
806.130821216626
 20
1484.338686427307
 30
0.0
 42
0.1601386182095308
  0
VERTEX
  5
895
330
4BE
100
AcDbEntity
  8
0
  6
CONTINUOUS
100
AcDbVertex
100
AcDb2dVertex
 10
792.0913159245319
 20
1451.411998613775
 30
0.0
 42
0.1601386182095308
  0
SEQEND
  5
896
330
4BE
100
AcDbEntity
  8
0
  6
CONTINUOUS
  0
POLYLINE
  5
4BF
330
1F
100
AcDbEntity
  8
0
  6
CONTINUOUS
100
AcDb2dPolyline
 66
     1
 10
0.0
 20
0.0
 30
0.0
  0
VERTEX
  5
897
330
4BF
100
AcDbEntity
  8
0
  6
CONTINUOUS
100
AcDbVertex
100
AcDb2dVertex
 10
739.6139894651569
 20
1474.012095709342
 30
0.0
 42
-0.624487388012175
  0
VERTEX
  5
898
330
4BF
100
AcDbEntity
  8
0
  6
CONTINUOUS
100
AcDbVertex
100
AcDb2dVertex
 10
735.3869909489949
 20
1457.891351800742
 30
0.0
 42
-0.5712699294635224
  0
VERTEX
  5
899
330
4BF
100
AcDbEntity
  8
0
  6
CONTINUOUS
100
AcDbVertex
100
AcDb2dVertex
 10
714.5428813021426
 20
1481.334160954625
 30
0.0
 42
-0.1992749000703595
  0
VERTEX
  5
89A
330
4BF
100
AcDbEntity
  8
0
  6
CONTINUOUS
100
AcDbVertex
100
AcDb2dVertex
 10
725.2018835995549
 20
1494.607052138665
 30
0.0
 42
-0.1922899288213652
  0
VERTEX
  5
89B
330
4BF
100
AcDbEntity
  8
0
  6
CONTINUOUS
100
AcDbVertex
100
AcDb2dVertex
 10
746.1520754089142
 20
1496.597661496585
 30
0.0
 42
-0.1435180749715141
  0
VERTEX
  5
89C
330
4BF
100
AcDbEntity
  8
0
  6
CONTINUOUS
100
AcDbVertex
100
AcDb2dVertex
 10
765.1029128670561
 20
1484.338686427307
 30
0.0
 42
-0.1601386182095308
  0
VERTEX
  5
89D
330
4BF
100
AcDbEntity
  8
0
  6
CONTINUOUS
100
AcDbVertex
100
AcDb2dVertex
 10
779.1424181591501
 20
1451.411998613775
 30
0.0
 42
-0.1601386182095308
  0
SEQEND
  5
89E
330
4BF
100
AcDbEntity
  8
0
  6
CONTINUOUS
  0
POLYLINE
  5
4C0
330
1F
100
AcDbEntity
  8
0
  6
CONTINUOUS
100
AcDb2dPolyline
 66
     1
 10
0.0
 20
0.0
 30
0.0
  0
VERTEX
  5
89F
330
4C0
100
AcDbEntity
  8
0
  6
CONTINUOUS
100
AcDbVertex
100
AcDb2dVertex
 10
739.6139894651569
 20
1474.012095709342
 30
0.0
  0
VERTEX
  5
8A0
330
4C0
100
AcDbEntity
  8
0
  6
CONTINUOUS
100
AcDbVertex
100
AcDb2dVertex
 10
738.8621122483091
 20
1472.521054950059
 30
0.0
 42
-0.5016049534703276
  0
VERTEX
  5
8A1
330
4C0
100
AcDbEntity
  8
0
  6
CONTINUOUS
100
AcDbVertex
100
AcDb2dVertex
 10
734.2168659926974
 20
1463.77616918946
 30
0.0
 42
-0.5731451722580876
  0
VERTEX
  5
8A2
330
4C0
100
AcDbEntity
  8
0
  6
CONTINUOUS
100
AcDbVertex
100
AcDb2dVertex
 10
720.2800586340745
 20
1479.57492214545
 30
0.0
 42
-0.1994211041236551
  0
VERTEX
  5
8A3
330
4C0
100
AcDbEntity
  8
0
  6
CONTINUOUS
100
AcDbVertex
100
AcDb2dVertex
 10
728.0152874728591
 20
1489.306783249504
 30
0.0
 42
-0.1912321573076029
  0
VERTEX
  5
8A4
330
4C0
100
AcDbEntity
  8
0
  6
CONTINUOUS
100
AcDbVertex
100
AcDb2dVertex
 10
744.4529566391574
 20
1490.843257888182
 30
0.0
 42
-0.143630861908326
  0
VERTEX
  5
8A5
330
4C0
100
AcDbEntity
  8
0
  6
CONTINUOUS
100
AcDbVertex
100
AcDb2dVertex
 10
760.5763039417434
 20
1480.400328200755
 30
0.0
 42
-0.1577079741972947
  0
VERTEX
  5
8A6
330
4C0
100
AcDbEntity
  8
0
  6
CONTINUOUS
100
AcDbVertex
100
AcDb2dVertex
 10
773.1178526872463
 20
1451.411998613775
 30
0.0
 42
-0.1577079741972947
  0
SEQEND
  5
8A7
330
4C0
100
AcDbEntity
  8
0
  6
CONTINUOUS
  0
POLYLINE
  5
4C1
330
1F
100
AcDbEntity
  8
0
  6
CONTINUOUS
100
AcDb2dPolyline
 66
     1
 10
0.0
 20
0.0
 30
0.0
  0
VERTEX
  5
8A8
330
4C1
100
AcDbEntity
  8
0
  6
CONTINUOUS
100
AcDbVertex
100
AcDb2dVertex
 10
798.5426963565696
 20
1437.411998613775
 30
0.0
 42
0.0363948171192986
  0
VERTEX
  5
8A9
330
4C1
100
AcDbEntity
  8
0
  6
CONTINUOUS
100
AcDbVertex
100
AcDb2dVertex
 10
800.7377930690635
 20
1426.934048218997
 30
0.0
  0
SEQEND
  5
8AA
330
4C1
100
AcDbEntity
  8
0
  6
CONTINUOUS
  0
POLYLINE
  5
4C2
330
1F
100
AcDbEntity
  8
0
  6
CONTINUOUS
100
AcDb2dPolyline
 66
     1
 10
0.0
 20
0.0
 30
0.0
  0
VERTEX
  5
8AB
330
4C2
100
AcDbEntity
  8
0
  6
CONTINUOUS
100
AcDbVertex
100
AcDb2dVertex
 10
772.6910377271196
 20
1437.411998613775
 30
0.0
 42
-0.0363948171192986
  0
VERTEX
  5
8AC
330
4C2
100
AcDbEntity
  8
0
  6
CONTINUOUS
100
AcDbVertex
100
AcDb2dVertex
 10
770.4959410146184
 20
1426.934048218997
 30
0.0
  0
SEQEND
  5
8AD
330
4C2
100
AcDbEntity
  8
0
  6
CONTINUOUS
  0
POLYLINE
  5
4C3
330
1F
100
AcDbEntity
  8
0
  6
CONTINUOUS
100
AcDb2dPolyline
 66
     1
 10
0.0
 20
0.0
 30
0.0
  0
VERTEX
  5
8AE
330
4C3
100
AcDbEntity
  8
0
  6
CONTINUOUS
100
AcDbVertex
100
AcDb2dVertex
 10
792.4927478386016
 20
1437.411998613775
 30
0.0
 42
0.0406020746902253
  0
VERTEX
  5
8AF
330
4C3
100
AcDbEntity
  8
0
  6
CONTINUOUS
100
AcDbVertex
100
AcDb2dVertex
 10
795.1184263983959
 20
1424.769837886993
 30
0.0
  0
SEQEND
  5
8B0
330
4C3
100
AcDbEntity
  8
0
  6
CONTINUOUS
  0
POLYLINE
  5
4C4
330
1F
100
AcDbEntity
  8
0
  6
CONTINUOUS
100
AcDb2dPolyline
 66
     1
 10
0.0
 20
0.0
 30
0.0
  0
VERTEX
  5
8B1
330
4C4
100
AcDbEntity
  8
0
  6
CONTINUOUS
100
AcDbVertex
100
AcDb2dVertex
 10
778.7409862450804
 20
1437.411998613775
 30
0.0
 42
-0.0406020746902253
  0
VERTEX
  5
8B2
330
4C4
100
AcDbEntity
  8
0
  6
CONTINUOUS
100
AcDbVertex
100
AcDb2dVertex
 10
776.1153076852933
 20
1424.769837886993
 30
0.0
  0
SEQEND
  5
8B3
330
4C4
100
AcDbEntity
  8
0
  6
CONTINUOUS
  0
LINE
  5
4C5
330
1F
100
AcDbEntity
  8
0
100
AcDbLine
 10
768.9348147162018
 20
1451.411998613775
 30
0.0
 11
802.2989193674876
 21
1451.411998613775
 31
0.0
  0
LINE
  5
4C6
330
1F
100
AcDbEntity
  8
0
100
AcDbLine
 10
768.9348147162018
 20
1447.411998613775
 30
0.0
 11
802.2989193674876
 21
1447.411998613775
 31
0.0
  0
LINE
  5
4C7
330
1F
100
AcDbEntity
  8
0
100
AcDbLine
 10
768.9348147162018
 20
1441.411998613774
 30
0.0
 11
802.2989193674876
 21
1441.411998613774
 31
0.0
  0
LINE
  5
4C8
330
1F
100
AcDbEntity
  8
0
100
AcDbLine
 10
802.2989193674876
 20
1437.411998613774
 30
0.0
 11
768.9348147162018
 21
1437.411998613774
 31
0.0
  0
LINE
  5
4C9
330
1F
100
AcDbEntity
  8
0
100
AcDbLine
 10
768.9348147162018
 20
1447.411998613775
 30
0.0
 11
768.9348147162018
 21
1451.411998613775
 31
0.0
  0
ARC
  5
4CA
330
1F
100
AcDbEntity
  8
0
100
AcDbCircle
 10
768.9348147162018
 20
1444.411998613774
 30
0.0
 40
3.000000000000056
100
AcDbArc
 50
90.0
 51
270.0
  0
LINE
  5
4CB
330
1F
100
AcDbEntity
  8
0
100
AcDbLine
 10
768.9348147162018
 20
1437.411998613774
 30
0.0
 11
768.9348147162018
 21
1441.411998613775
 31
0.0
  0
ARC
  5
4CC
330
1F
100
AcDbEntity
  8
0
100
AcDbCircle
 10
802.2989193674876
 20
1444.411998613774
 30
0.0
 40
3.000000000000056
100
AcDbArc
 50
270.0
 51
90.0
  0
LINE
  5
4CD
330
1F
100
AcDbEntity
  8
0
100
AcDbLine
 10
802.2989193674876
 20
1447.411998613775
 30
0.0
 11
802.2989193674876
 21
1451.411998613775
 31
0.0
  0
LINE
  5
4CE
330
1F
100
AcDbEntity
  8
0
100
AcDbLine
 10
802.2989193674876
 20
1437.411998613774
 30
0.0
 11
802.2989193674876
 21
1441.411998613775
 31
0.0
  0
ARC
  5
4CF
330
1F
100
AcDbEntity
  8
0
100
AcDbCircle
 10
1066.035267546278
 20
1440.031388234242
 30
0.0
 40
47.3092865871033
100
AcDbArc
 50
326.7886702848471
 51
33.21132971515288
  0
LINE
  5
4D0
330
1F
100
AcDbEntity
  8
0
100
AcDbLine
 10
1123.995710729243
 20
1393.480055992434
 30
0.0
 11
1110.661847750896
 21
1390.942051344642
 31
0.0
  0
LINE
  5
4D1
330
1F
100
AcDbEntity
  8
0
100
AcDbLine
 10
1110.661847750896
 20
1394.749052593992
 30
0.0
 11
1125.900564960655
 21
1396.018049195551
 31
0.0
  0
LINE
  5
4D2
330
1F
100
AcDbEntity
  8
0
100
AcDbLine
 10
1134.161257862571
 20
1433.528485929119
 30
0.0
 11
1114.477932620204
 21
1436.066490576908
 31
0.0
  0
LINE
  5
4D3
330
1F
100
AcDbEntity
  8
0
100
AcDbLine
 10
1115.747828961059
 20
1442.411485029377
 30
0.0
 11
1132.891361521709
 21
1434.162989952234
 31
0.0
  0
LINE
  5
4D4
330
1F
100
AcDbEntity
  8
0
100
AcDbLine
 10
1115.112871070501
 20
1482.451228460524
 30
0.0
 11
1134.161257862571
 21
1485.623725686759
 31
0.0
  0
LINE
  5
4D5
330
1F
100
AcDbEntity
  8
0
100
AcDbLine
 10
1134.161257862571
 20
1485.623725686759
 30
0.0
 11
1109.398366697038
 21
1487.527226311435
 31
0.0
  0
ARC
  5
4D6
330
1F
100
AcDbEntity
  8
0
100
AcDbCircle
 10
1158.853944787864
 20
1523.833094220686
 30
0.0
 40
27.47268131795497
100
AcDbArc
 50
147.7604243754351
 51
212.2395756245648
  0
ARC
  5
4D7
330
1F
100
AcDbEntity
  8
0
100
AcDbCircle
 10
1066.691631194356
 20
1523.833094220686
 30
0.0
 40
41.59279291423044
100
AcDbArc
 50
339.3683311470855
 51
20.63166885291452
  0
LINE
  5
4D8
330
1F
100
AcDbEntity
  8
0
100
AcDbLine
 10
1127.174932562149
 20
1521.213277339905
 30
0.0
 11
1109.396442110934
 21
1521.213277339905
 31
0.0
  0
LINE
  5
4D9
330
1F
100
AcDbEntity
  8
0
100
AcDbLine
 10
1109.396442110934
 20
1525.020267144582
 30
0.0
 11
1130.349663694163
 21
1522.482273941463
 31
0.0
  0
ARC
  5
4DA
330
1F
100
AcDbEntity
  8
0
100
AcDbCircle
 10
596.363212077158
 20
1692.091274710266
 30
0.0
 40
47.3092865871033
100
AcDbArc
 50
56.78867028465877
 51
123.2113297153412
  0
LINE
  5
4DB
330
1F
100
AcDbEntity
  8
0
100
AcDbLine
 10
1105.616867041841
 20
1761.672874205838
 30
0.0
 11
465.6168670418483
 21
1761.672874205838
 31
0.0
  0
LINE
  5
4DC
330
1F
100
AcDbEntity
  8
0
100
AcDbLine
 10
465.616867041841
 20
1731.67287420583
 30
0.0
 11
1105.616867041848
 21
1731.672874205855
 31
0.0
  0
LINE
  5
4DD
330
1F
100
AcDbEntity
  8
0
100
AcDbLine
 10
459.9177787974331
 20
1700.563969195742
 30
0.0
 11
440.4936117094694
 21
1699.576992185055
 31
0.0
  0
ARC
  5
4DE
330
1F
100
AcDbEntity
  8
0
100
AcDbCircle
 10
363.7132748438671
 20
1701.836364864687
 30
0.0
 40
74.24670187285427
100
AcDbArc
 50
345.5674138148628
 51
14.43258618513716
  0
ARC
  5
4DF
330
1F
100
AcDbEntity
  8
0
100
AcDbCircle
 10
513.33112940313
 20
1701.836364864687
 30
0.0
 40
51.17711403260225
100
AcDbArc
 50
158.8019222471191
 51
201.1980777528808
  0
ARC
  5
4E0
330
1F
100
AcDbEntity
  8
0
100
AcDbCircle
 10
494.0325768495531
 20
1612.435336263837
 30
0.0
 40
30.75581818224811
100
AcDbArc
 50
157.5050578832839
 51
202.494942116716
  0
LINE
  5
4E1
330
1F
100
AcDbEntity
  8
0
100
AcDbLine
 10
465.7048731152753
 20
1568.493400529566
 30
0.0
 11
442.0351468539738
 21
1570.411218438072
 31
0.0
  0
LINE
  5
4E2
330
1F
100
AcDbEntity
  8
0
100
AcDbLine
 10
442.0351468539738
 20
1566.575582621059
 30
0.0
 11
465.7048731152753
 21
1568.493400529566
 31
0.0
  0
LINE
  5
4E3
330
1F
100
AcDbEntity
  8
0
100
AcDbLine
 10
438.8371846069276
 20
1617.166763672727
 30
0.0
 11
459.9480084073729
 21
1612.691851404654
 31
0.0
  0
LINE
  5
4E4
330
1F
100
AcDbEntity
  8
0
100
AcDbLine
 10
459.9480084073729
 20
1610.774033496147
 30
0.0
 11
438.8371846069276
 21
1617.166763672727
 31
0.0
  0
ARC
  5
4E5
330
1F
100
AcDbEntity
  8
0
100
AcDbCircle
 10
380.3724259271766
 20
1645.618617158517
 30
0.0
 40
59.25027723911768
100
AcDbArc
 50
338.8106919803579
 51
21.18930801964204
  0
LINE
  5
4E6
330
1F
100
AcDbEntity
  8
0
100
AcDbLine
 10
460.9101070542383
 20
1641.587700914626
 30
0.0
 11
441.4859399662673
 21
1643.561654935998
 31
0.0
  0
LINE
  5
4E7
330
1F
100
AcDbEntity
  8
0
100
AcDbLine
 10
442.6793777502825
 20
1640.234185415307
 30
0.0
 11
460.2516653252169
 21
1640.271735381936
 31
0.0
  0
LINE
  5
4E8
330
1F
100
AcDbEntity
  8
0
100
AcDbLine
 10
440.1640603604755
 20
1675.852417414801
 30
0.0
 11
458.6005648549107
 21
1674.865440404114
 31
0.0
  0
LINE
  5
4E9
330
1F
100
AcDbEntity
  8
0
100
AcDbLine
 10
460.5758900419751
 20
1672.891486382743
 30
0.0
 11
440.1640603604755
 21
1672.891486382743
 31
0.0
  0
ARC
  5
4EA
330
1F
100
AcDbEntity
  8
0
100
AcDbCircle
 10
418.6404289605052
 20
1675.182864085743
 30
0.0
 40
18.83062952425546
100
AcDbArc
 50
334.3603398614806
 51
25.63966013851934
  0
ARC
  5
4EB
330
1F
100
AcDbEntity
  8
0
100
AcDbCircle
 10
477.8557724754501
 20
1675.182864085743
 30
0.0
 40
14.70319572620801
100
AcDbArc
 50
146.3458272490086
 51
213.6541727509913
  0
ARC
  5
4EC
330
1F
100
AcDbEntity
  8
0
100
AcDbCircle
 10
333.6391075488573
 20
1767.882619304237
 30
0.0
 40
106.6116003211486
100
AcDbArc
 50
343.0452386242173
 51
16.95476137578272
  0
LINE
  5
4ED
330
1F
100
AcDbEntity
  8
0
100
AcDbLine
 10
465.6168670418483
 20
1761.672874205838
 30
0.0
 11
465.6168670418483
 21
1814.100372983411
 31
0.0
  0
LINE
  5
4EE
330
1F
100
AcDbEntity
  8
0
100
AcDbLine
 10
544.0355138778322
 20
1736.438381684997
 30
0.0
 11
542.6202429320255
 21
1755.794021843679
 31
0.0
  0
LINE
  5
4EF
330
1F
100
AcDbEntity
  8
0
100
AcDbLine
 10
515.9100166396456
 20
1736.668573846595
 30
0.0
 11
515.9100166396456
 21
1754.399649494824
 31
0.0
  0
LINE
  5
4F0
330
1F
100
AcDbEntity
  8
0
100
AcDbLine
 10
468.5149088371472
 20
1738.056841952673
 30
0.0
 11
469.1169786617174
 21
1760.349225536056
 31
0.0
  0
ARC
  5
4F1
330
1F
100
AcDbEntity
  8
0
100
AcDbCircle
 10
548.8338296682996
 20
1678.801581051677
 30
0.0
 40
57.11966942967778
100
AcDbArc
 50
67.7625217861606
 51
112.2374782138394
  0
ARC
  5
4F2
330
1F
100
AcDbEntity
  8
0
100
AcDbCircle
 10
512.5615060907148
 20
1692.747638358349
 30
0.0
 40
41.59279291423044
100
AcDbArc
 50
69.36833114710605
 51
110.6316688528939
  0
LINE
  5
4F3
330
1F
100
AcDbEntity
  8
0
100
AcDbLine
 10
439.835169980448
 20
1701.879934728433
 30
0.0
 11
460.5762205264546
 21
1701.550946206427
 31
0.0
  0
LINE
  5
4F4
330
1F
100
AcDbEntity
  8
0
100
AcDbLine
 10
430.6168670418482
 20
1761.672874205839
 30
0.0
 11
380.6168670418555
 21
1761.672874205839
 31
0.0
  0
LINE
  5
4F5
330
1F
100
AcDbEntity
  8
0
100
AcDbLine
 10
573.9954431492297
 20
1759.924883461621
 30
0.0
 11
576.3379613660654
 21
1742.176136613756
 31
0.0
  0
LINE
  5
4F6
330
1F
100
AcDbEntity
  8
0
100
AcDbLine
 10
577.6765530139673
 20
1742.845912016471
 30
0.0
 11
577.3418993796585
 21
1759.924883461621
 31
0.0
  0
LINE
  5
4F7
330
1F
100
AcDbEntity
  8
0
100
AcDbLine
 10
494.9291644843106
 20
1760.036645537208
 30
0.0
 11
496.3444354301173
 21
1743.041442188025
 31
0.0
  0
LINE
  5
4F8
330
1F
100
AcDbEntity
  8
0
100
AcDbLine
 10
493.9856543353235
 20
1741.153092740425
 30
0.0
 11
493.5138935385039
 21
1759.09247081341
 31
0.0
  0
ARC
  5
4F9
330
1F
100
AcDbEntity
  8
0
100
AcDbCircle
 10
512.5615060907148
 20
1784.909951951853
 30
0.0
 40
27.47268131795497
100
AcDbArc
 50
237.7604243754138
 51
302.239575624586
  0
LINE
  5
4FA
330
1F
100
AcDbEntity
  8
0
100
AcDbLine
 10
442.0351468539738
 20
1764.879806497453
 30
0.0
 11
465.7048731152753
 21
1766.797624405959
 31
0.0
  0
LINE
  5
4FB
330
1F
100
AcDbEntity
  8
0
100
AcDbLine
 10
465.7048731152753
 20
1766.797624405959
 30
0.0
 11
442.0351468539738
 21
1768.715442314466
 31
0.0
  0
ARC
  5
4FC
330
1F
100
AcDbEntity
  8
0
100
AcDbCircle
 10
494.0325768495531
 20
1810.73956014023
 30
0.0
 40
30.75581818224811
100
AcDbArc
 50
157.5050578832839
 51
202.494942116716
  0
ARC
  5
4FD
330
1F
100
AcDbEntity
  8
0
100
AcDbCircle
 10
577.3896254661594
 20
1814.216987074407
 30
0.0
 40
111.7728192568552
100
AcDbArc
 50
167.0823497461096
 51
180.0597774704437
  0
ARC
  5
4FE
330
1F
100
AcDbEntity
  8
0
100
AcDbCircle
 10
498.5894811677935
 20
1838.072600300847
 30
0.0
 40
20.57910459210134
100
AcDbArc
 50
250.42129981753
 51
0.3188935195127302
  0
LINE
  5
4FF
330
1F
100
AcDbEntity
  8
0
100
AcDbLine
 10
459.9480084073729
 20
1809.078257372541
 30
0.0
 11
438.8371846069276
 21
1815.470987549121
 31
0.0
  0
LINE
  5
500
330
1F
100
AcDbEntity
  8
0
100
AcDbLine
 10
438.8371846069276
 20
1815.470987549121
 30
0.0
 11
459.9480084073729
 21
1810.996075281048
 31
0.0
  0
ARC
  5
501
330
1F
100
AcDbEntity
  8
0
100
AcDbCircle
 10
486.3145304897625
 20
1828.897000851176
 30
0.0
 40
1.128188444007362
100
AcDbArc
 50
15.08734805224551
 51
168.5043254182343
  0
ARC
  5
502
330
1F
100
AcDbEntity
  8
0
100
AcDbCircle
 10
496.8530437139852
 20
1829.121841989971
 30
0.0
 40
11.64406992900598
100
AcDbArc
 50
180.0000000001042
 51
243.6972773445043
  0
ARC
  5
503
330
1F
100
AcDbEntity
  8
0
100
AcDbCircle
 10
491.1921450449153
 20
1834.475811042273
 30
0.0
 40
17.52038392394176
100
AcDbArc
 50
334.6703494387722
 51
23.56109749141278
  0
ARC
  5
504
330
1F
100
AcDbEntity
  8
0
100
AcDbCircle
 10
488.2909671316665
 20
1832.798880242752
 30
0.0
 40
20.85343364328423
100
AcDbArc
 50
24.59822640869856
 51
162.1129264918327
  0
ARC
  5
505
330
1F
100
AcDbEntity
  8
0
100
AcDbCircle
 10
497.7266888019149
 20
1832.61926638963
 30
0.0
 40
10.87735064798026
100
AcDbArc
 50
198.3732597272143
 51
328.7731228009473
  0
LINE
  5
506
330
1F
100
AcDbEntity
  8
0
100
AcDbLine
 10
1125.999043689662
 20
1700.563969195742
 30
0.0
 11
1106.574876601698
 21
1699.576992185055
 31
0.0
  0
ARC
  5
507
330
1F
100
AcDbEntity
  8
0
100
AcDbCircle
 10
1033.713274843874
 20
1701.836364864687
 30
0.0
 40
74.24670187285427
100
AcDbArc
 50
345.5674138148628
 51
14.43258618513716
  0
LINE
  5
508
330
1F
100
AcDbEntity
  8
0
  6
CONTINUOUS
 62
     7
100
AcDbLine
 10
1126.916867041858
 20
1645.672874205839
 30
0.0
 11
1126.916867041858
 21
1719.672874205839
 31
0.0
  0
LINE
  5
509
330
1F
100
AcDbEntity
  8
0
  6
CONTINUOUS
 62
     7
100
AcDbLine
 10
1146.916867041858
 20
1719.672874205839
 30
0.0
 11
1146.916867041858
 21
1645.672874205839
 31
0.0
  0
LINE
  5
50A
330
1F
100
AcDbEntity
  8
0
  6
CONTINUOUS
 62
     7
100
AcDbLine
 10
1126.916867041858
 20
1568.672874205839
 30
0.0
 11
1126.916867041858
 21
1642.672874205839
 31
0.0
  0
LINE
  5
50B
330
1F
100
AcDbEntity
  8
0
  6
CONTINUOUS
 62
     7
100
AcDbLine
 10
1146.916867041858
 20
1568.672874205839
 30
0.0
 11
1146.916867041858
 21
1642.672874205839
 31
0.0
  0
LINE
  5
50C
330
1F
100
AcDbEntity
  8
0
  6
CONTINUOUS
 62
     7
100
AcDbLine
 10
1126.916867041858
 20
1568.672874205839
 30
0.0
 11
1146.916867041858
 21
1568.672874205839
 31
0.0
  0
LINE
  5
50D
330
1F
100
AcDbEntity
  8
0
  6
CONTINUOUS
 62
     7
100
AcDbLine
 10
1127.916867041858
 20
1566.672874205839
 30
0.0
 11
1145.916867041858
 21
1566.672874205839
 31
0.0
  0
ARC
  5
50E
330
1F
100
AcDbEntity
  8
0
  6
CONTINUOUS
 62
     7
100
AcDbCircle
 10
1127.916867041858
 20
1568.172874205839
 30
0.0
 40
0.5
100
AcDbArc
 50
90.0
 51
180.0
  0
ARC
  5
50F
330
1F
100
AcDbEntity
  8
0
  6
CONTINUOUS
 62
     7
100
AcDbCircle
 10
1127.916867041858
 20
1567.172874205839
 30
0.0
 40
0.5
100
AcDbArc
 50
180.0
 51
270.0
  0
LINE
  5
510
330
1F
100
AcDbEntity
  8
0
  6
CONTINUOUS
 62
     7
100
AcDbLine
 10
1127.416867041858
 20
1567.172874205839
 30
0.0
 11
1127.416867041858
 21
1568.172874205839
 31
0.0
  0
ARC
  5
511
330
1F
100
AcDbEntity
  8
0
  6
CONTINUOUS
 62
     7
100
AcDbCircle
 10
1145.916867041858
 20
1568.172874205839
 30
0.0
 40
0.5
100
AcDbArc
 50
0.0
 51
90.0
  0
ARC
  5
512
330
1F
100
AcDbEntity
  8
0
  6
CONTINUOUS
 62
     7
100
AcDbCircle
 10
1145.916867041858
 20
1567.172874205839
 30
0.0
 40
0.5
100
AcDbArc
 50
270.0
 51
0.0
  0
LINE
  5
513
330
1F
100
AcDbEntity
  8
0
  6
CONTINUOUS
 62
     7
100
AcDbLine
 10
1146.416867041858
 20
1567.172874205839
 30
0.0
 11
1146.416867041858
 21
1568.172874205839
 31
0.0
  0
LINE
  5
514
330
1F
100
AcDbEntity
  8
0
100
AcDbLine
 10
1126.029273299602
 20
1610.774033496147
 30
0.0
 11
1104.918449499156
 21
1617.166763672727
 31
0.0
  0
LINE
  5
515
330
1F
100
AcDbEntity
  8
0
100
AcDbLine
 10
1104.918449499156
 20
1617.166763672727
 30
0.0
 11
1126.029273299602
 21
1612.691851404654
 31
0.0
  0
ARC
  5
516
330
1F
100
AcDbEntity
  8
0
100
AcDbCircle
 10
1050.372425927184
 20
1645.618617158517
 30
0.0
 40
59.25027723911768
100
AcDbArc
 50
338.8106919803579
 51
21.18930801964204
  0
LINE
  5
517
330
1F
100
AcDbEntity
  8
0
  6
CONTINUOUS
 62
     7
100
AcDbLine
 10
1146.916867041858
 20
1645.672874205839
 30
0.0
 11
1126.916867041858
 21
1645.672874205838
 31
0.0
  0
LINE
  5
518
330
1F
100
AcDbEntity
  8
0
  6
CONTINUOUS
 62
     7
100
AcDbLine
 10
1126.916867041858
 20
1642.672874205839
 30
0.0
 11
1146.916867041858
 21
1642.672874205839
 31
0.0
  0
LINE
  5
519
330
1F
100
AcDbEntity
  8
0
  6
CONTINUOUS
 62
     7
100
AcDbLine
 10
1127.416867041858
 20
1642.672874205839
 30
0.0
 11
1127.416867041858
 21
1645.672874205839
 31
0.0
  0
LINE
  5
51A
330
1F
100
AcDbEntity
  8
0
  6
CONTINUOUS
 62
     7
100
AcDbLine
 10
1146.416867041858
 20
1642.672874205839
 30
0.0
 11
1146.416867041858
 21
1645.672874205839
 31
0.0
  0
LINE
  5
51B
330
1F
100
AcDbEntity
  8
0
100
AcDbLine
 10
1108.760642642511
 20
1640.234185415307
 30
0.0
 11
1126.332930217446
 21
1640.271735381936
 31
0.0
  0
LINE
  5
51C
330
1F
100
AcDbEntity
  8
0
100
AcDbLine
 10
1126.991371946467
 20
1641.587700914626
 30
0.0
 11
1107.567204858496
 21
1643.561654935998
 31
0.0
  0
ARC
  5
51D
330
1F
100
AcDbEntity
  8
0
100
AcDbCircle
 10
1088.640428960512
 20
1675.182864085743
 30
0.0
 40
18.83062952425546
100
AcDbArc
 50
334.3603398614806
 51
25.63966013851934
  0
LINE
  5
51E
330
1F
100
AcDbEntity
  8
0
100
AcDbLine
 10
1126.657154934204
 20
1672.891486382743
 30
0.0
 11
1106.245325252704
 21
1672.891486382743
 31
0.0
  0
LINE
  5
51F
330
1F
100
AcDbEntity
  8
0
100
AcDbLine
 10
1106.245325252704
 20
1675.852417414801
 30
0.0
 11
1124.681829747139
 21
1674.865440404114
 31
0.0
  0
LINE
  5
520
330
1F
100
AcDbEntity
  8
0
100
AcDbLine
 10
1135.616867041841
 20
1814.10037298415
 30
0.0
 11
1135.616867041848
 21
1721.67287420584
 31
0.0
  0
LINE
  5
521
330
1F
100
AcDbEntity
  8
0
100
AcDbLine
 10
1105.616867041841
 20
1814.100822458284
 30
0.0
 11
1105.616867041841
 21
1761.672874205838
 31
0.0
  0
ARC
  5
522
330
1F
100
AcDbEntity
  8
0
100
AcDbCircle
 10
947.0040966052692
 20
1683.958611844547
 30
0.0
 40
51.17711403260225
100
AcDbArc
 50
68.80192224708316
 51
111.1980777529168
  0
ARC
  5
523
330
1F
100
AcDbEntity
  8
0
100
AcDbCircle
 10
947.0040966052692
 20
1833.57646640381
 30
0.0
 40
74.24670187285427
100
AcDbArc
 50
255.5674138150362
 51
284.4325861849637
  0
LINE
  5
524
330
1F
100
AcDbEntity
  8
0
100
AcDbLine
 10
947.8684782966883
 20
1736.717854914886
 30
0.0
 11
946.5994816951278
 21
1751.956572124649
 31
0.0
  0
LINE
  5
525
330
1F
100
AcDbEntity
  8
0
100
AcDbLine
 10
949.1374748982488
 20
1750.051717893233
 30
0.0
 11
951.6754795460364
 21
1736.717854914886
 31
0.0
  0
LINE
  5
526
330
1F
100
AcDbEntity
  8
0
100
AcDbLine
 10
856.9938052039216
 20
1760.217265026562
 30
0.0
 11
855.0903045792438
 21
1735.454373861028
 31
0.0
  0
LINE
  5
527
330
1F
100
AcDbEntity
  8
0
100
AcDbLine
 10
821.4042535507759
 20
1753.230939726139
 30
0.0
 11
821.4042535507759
 21
1735.452449274927
 31
0.0
  0
LINE
  5
528
330
1F
100
AcDbEntity
  8
0
100
AcDbLine
 10
725.4507672179534
 20
1734.893191770928
 30
0.0
 11
729.9256794860266
 21
1756.00401557137
 31
0.0
  0
LINE
  5
529
330
1F
100
AcDbEntity
  8
0
100
AcDbLine
 10
731.8434973945332
 20
1756.00401557137
 30
0.0
 11
725.4507672179534
 21
1734.893191770928
 31
0.0
  0
LINE
  5
52A
330
1F
100
AcDbEntity
  8
0
100
AcDbLine
 10
701.0298299760543
 20
1756.966114218236
 30
0.0
 11
699.0558759546838
 21
1737.541947130268
 31
0.0
  0
LINE
  5
52B
330
1F
100
AcDbEntity
  8
0
100
AcDbLine
 10
774.1241303611168
 20
1761.760880279276
 30
0.0
 11
772.2063124526102
 21
1738.091154017975
 31
0.0
  0
LINE
  5
52C
330
1F
100
AcDbEntity
  8
0
100
AcDbLine
 10
776.0419482696233
 20
1738.091154017975
 30
0.0
 11
774.1241303611168
 21
1761.760880279276
 31
0.0
  0
LINE
  5
52D
330
1F
100
AcDbEntity
  8
0
100
AcDbLine
 10
817.5972637460946
 20
1735.452449274927
 30
0.0
 11
820.1352569492154
 21
1756.405670858153
 31
0.0
  0
LINE
  5
52E
330
1F
100
AcDbEntity
  8
0
100
AcDbLine
 10
666.765113475878
 20
1736.220067524473
 30
0.0
 11
667.7520904865668
 21
1754.656572018908
 31
0.0
  0
LINE
  5
52F
330
1F
100
AcDbEntity
  8
0
100
AcDbLine
 10
669.7260445079373
 20
1756.631897205972
 30
0.0
 11
669.7260445079373
 21
1736.220067524473
 31
0.0
  0
LINE
  5
530
330
1F
100
AcDbEntity
  8
0
100
AcDbLine
 10
640.7375961622456
 20
1735.891177144445
 30
0.0
 11
641.066584684253
 21
1756.632227690452
 31
0.0
  0
LINE
  5
531
330
1F
100
AcDbEntity
  8
0
100
AcDbLine
 10
642.0535616949345
 20
1755.973785961434
 30
0.0
 11
643.0405387056234
 21
1736.549618873467
 31
0.0
  0
ARC
  5
532
330
1F
100
AcDbEntity
  8
0
100
AcDbCircle
 10
902.586142656437
 20
1692.091274710266
 30
0.0
 40
47.3092865871033
100
AcDbArc
 50
56.78867028465877
 51
123.2113297153412
  0
ARC
  5
533
330
1F
100
AcDbEntity
  8
0
100
AcDbCircle
 10
773.0391354628372
 20
1629.695114712856
 30
0.0
 40
106.6116003211486
100
AcDbArc
 50
73.04523862415599
 51
106.954761375844
  0
ARC
  5
534
330
1F
100
AcDbEntity
  8
0
100
AcDbCircle
 10
667.4346668049329
 20
1714.696436124501
 30
0.0
 40
18.83062952425546
100
AcDbArc
 50
64.36033986153891
 51
115.639660138461
  0
ARC
  5
535
330
1F
100
AcDbEntity
  8
0
100
AcDbCircle
 10
640.7811660259904
 20
1659.769282007863
 30
0.0
 40
74.24670187285427
100
AcDbArc
 50
75.56741381503623
 51
104.4325861849637
  0
ARC
  5
536
330
1F
100
AcDbEntity
  8
0
100
AcDbCircle
 10
696.9989137321609
 20
1676.428433091172
 30
0.0
 40
59.25027723911768
100
AcDbArc
 50
68.81069198024245
 51
111.1893080197575
  0
ARC
  5
537
330
1F
100
AcDbEntity
  8
0
100
AcDbCircle
 10
855.0567602475785
 20
1678.801581051677
 30
0.0
 40
57.11966942967778
100
AcDbArc
 50
67.7625217861606
 51
112.2374782138394
  0
ARC
  5
538
330
1F
100
AcDbEntity
  8
0
100
AcDbCircle
 10
818.7844366699938
 20
1692.747638358349
 30
0.0
 40
41.59279291423044
100
AcDbArc
 50
69.36833114710605
 51
110.6316688528939
  0
LINE
  5
539
330
1F
100
AcDbEntity
  8
0
100
AcDbLine
 10
702.3833454753694
 20
1738.735384914283
 30
0.0
 11
702.3457955087433
 21
1756.307672489214
 31
0.0
  0
ARC
  5
53A
330
1F
100
AcDbEntity
  8
0
100
AcDbCircle
 10
730.1821946268391
 20
1790.088584013548
 30
0.0
 40
30.75581818224811
100
AcDbArc
 50
247.5050578833277
 51
292.4949421166722
  0
ARC
  5
53B
330
1F
100
AcDbEntity
  8
0
100
AcDbCircle
 10
667.4346668049329
 20
1773.911779639446
 30
0.0
 40
14.70319572620801
100
AcDbArc
 50
236.3458272487833
 51
303.6541727512166
  0
ARC
  5
53C
330
1F
100
AcDbEntity
  8
0
100
AcDbCircle
 10
640.7811660259904
 20
1809.387136567126
 30
0.0
 40
51.17711403260225
100
AcDbArc
 50
248.8019222470831
 51
291.1980777529168
  0
LINE
  5
53D
330
1F
100
AcDbEntity
  8
0
100
AcDbLine
 10
909.0890449615617
 20
1760.217265026562
 30
0.0
 11
906.5510403137741
 21
1740.533939784194
 31
0.0
  0
LINE
  5
53E
330
1F
100
AcDbEntity
  8
0
100
AcDbLine
 10
860.1663024301524
 20
1741.168878234491
 30
0.0
 11
856.9938052039216
 21
1760.217265026562
 31
0.0
  0
ARC
  5
53F
330
1F
100
AcDbEntity
  8
0
100
AcDbCircle
 10
818.7844366699938
 20
1784.909951951853
 30
0.0
 40
27.47268131795497
100
AcDbArc
 50
237.7604243754138
 51
302.239575624586
  0
LINE
  5
540
330
1F
100
AcDbEntity
  8
0
100
AcDbLine
 10
900.2060458613049
 20
1741.803836125052
 30
0.0
 11
908.4545409384444
 21
1758.947368685703
 31
0.0
  0
LINE
  5
541
330
1F
100
AcDbEntity
  8
0
100
AcDbLine
 10
1140.616867041848
 20
1761.672874205839
 30
0.0
 11
1140.616867041848
 21
1721.67287420584
 31
0.0
  0
LINE
  5
542
330
1F
100
AcDbEntity
  8
0
100
AcDbLine
 10
1077.107829835644
 20
1756.371630956544
 30
0.0
 11
1075.593802820942
 21
1733.140340960804
 31
0.0
  0
LINE
  5
543
330
1F
100
AcDbEntity
  8
0
100
AcDbLine
 10
1082.659227888856
 20
1754.351515402084
 30
0.0
 11
1080.1358609757
 21
1731.625264015094
 31
0.0
  0
LINE
  5
544
330
1F
100
AcDbEntity
  8
0
100
AcDbLine
 10
1037.499127060735
 20
1736.089973280288
 30
0.0
 11
1039.402627685405
 21
1745.614147236059
 31
0.0
  0
LINE
  5
545
330
1F
100
AcDbEntity
  8
0
100
AcDbLine
 10
1040.671624286966
 20
1734.185119048868
 30
0.0
 11
1041.940620888526
 21
1760.217906555261
 31
0.0
  0
LINE
  5
546
330
1F
100
AcDbEntity
  8
0
100
AcDbLine
 10
999.9952023451552
 20
1734.179364730835
 30
0.0
 11
1006.340196797616
 21
1757.037421105216
 31
0.0
  0
LINE
  5
547
330
1F
100
AcDbEntity
  8
0
100
AcDbLine
 10
1006.340196797616
 20
1751.95785518205
 30
0.0
 11
1003.167699571386
 21
1734.179364730835
 31
0.0
  0
LINE
  5
548
330
1F
100
AcDbEntity
  8
0
100
AcDbLine
 10
972.6617564755869
 20
1738.622067617607
 30
0.0
 11
973.9307530771402
 21
1757.035496519116
 31
0.0
  0
LINE
  5
549
330
1F
100
AcDbEntity
  8
0
100
AcDbLine
 10
976.468757724935
 20
1757.035496519116
 30
0.0
 11
974.5652571002574
 21
1737.352171276748
 31
0.0
  0
LINE
  5
54A
330
1F
100
AcDbEntity
  8
0
  6
CONTINUOUS
 62
     7
100
AcDbLine
 10
1127.916867041858
 20
1721.672874205839
 30
0.0
 11
1145.916867041858
 21
1721.672874205839
 31
0.0
  0
LINE
  5
54B
330
1F
100
AcDbEntity
  8
0
  6
CONTINUOUS
 62
     7
100
AcDbLine
 10
1126.916867041858
 20
1719.672874205839
 30
0.0
 11
1146.916867041858
 21
1719.672874205839
 31
0.0
  0
LINE
  5
54C
330
1F
100
AcDbEntity
  8
0
  6
CONTINUOUS
 62
     7
100
AcDbLine
 10
1128.916867041858
 20
1719.672874205839
 30
0.0
 11
1144.916867041858
 21
1719.672874205839
 31
0.0
  0
ARC
  5
54D
330
1F
100
AcDbEntity
  8
0
  6
CONTINUOUS
 62
     7
100
AcDbCircle
 10
1127.916867041858
 20
1721.172874205839
 30
0.0
 40
0.5
100
AcDbArc
 50
90.0
 51
180.0
  0
ARC
  5
54E
330
1F
100
AcDbEntity
  8
0
  6
CONTINUOUS
 62
     7
100
AcDbCircle
 10
1127.916867041858
 20
1720.172874205839
 30
0.0
 40
0.5
100
AcDbArc
 50
180.0
 51
270.0
  0
LINE
  5
54F
330
1F
100
AcDbEntity
  8
0
  6
CONTINUOUS
 62
     7
100
AcDbLine
 10
1127.416867041858
 20
1720.172874205839
 30
0.0
 11
1127.416867041858
 21
1721.172874205839
 31
0.0
  0
ARC
  5
550
330
1F
100
AcDbEntity
  8
0
  6
CONTINUOUS
 62
     7
100
AcDbCircle
 10
1145.916867041858
 20
1721.172874205839
 30
0.0
 40
0.5
100
AcDbArc
 50
0.0
 51
90.0
  0
ARC
  5
551
330
1F
100
AcDbEntity
  8
0
  6
CONTINUOUS
 62
     7
100
AcDbCircle
 10
1145.916867041858
 20
1720.172874205839
 30
0.0
 40
0.5
100
AcDbArc
 50
270.0
 51
0.0
  0
LINE
  5
552
330
1F
100
AcDbEntity
  8
0
  6
CONTINUOUS
 62
     7
100
AcDbLine
 10
1146.416867041858
 20
1721.172874205839
 30
0.0
 11
1146.416867041858
 21
1720.172874205839
 31
0.0
  0
ARC
  5
553
330
1F
100
AcDbEntity
  8
0
100
AcDbCircle
 10
1036.405125206118
 20
1703.257164398124
 30
0.0
 40
30.75581818224811
100
AcDbArc
 50
67.50505788332779
 51
112.4949421166722
  0
ARC
  5
554
330
1F
100
AcDbEntity
  8
0
100
AcDbCircle
 10
973.6575973842118
 20
1719.433968772227
 30
0.0
 40
14.70319572620801
100
AcDbArc
 50
56.34582724878332
 51
123.6541727512166
  0
LINE
  5
555
330
1F
100
AcDbEntity
  8
0
100
AcDbLine
 10
1105.916434872677
 20
1737.146743404446
 30
0.0
 11
1126.657485418683
 21
1736.817754882441
 31
0.0
  0
LINE
  5
556
330
1F
100
AcDbEntity
  8
0
100
AcDbLine
 10
1125.999043689662
 20
1735.830777871756
 30
0.0
 11
1106.574876601698
 21
1734.843800861068
 31
0.0
  0
LINE
  5
557
330
1F
100
AcDbEntity
  8
0
100
AcDbLine
 10
1105.916434872677
 20
1701.879934728433
 30
0.0
 11
1126.657485418683
 21
1701.550946206427
 31
0.0
  0
LINE
  5
558
330
1F
100
AcDbEntity
  8
0
100
AcDbLine
 10
1140.616867041848
 20
1761.672874205839
 30
0.0
 11
1190.616867041841
 21
1761.672874205839
 31
0.0
  0
LINE
  5
559
330
1F
100
AcDbEntity
  8
0
100
AcDbLine
 10
1112.679377750289
 20
1768.945914513899
 30
0.0
 11
1130.251665325224
 21
1768.983464480527
 31
0.0
  0
ARC
  5
55A
330
1F
100
AcDbEntity
  8
0
100
AcDbCircle
 10
1003.22184431144
 20
1816.917315320501
 30
0.0
 40
59.25027723911768
100
AcDbArc
 50
248.8106919802424
 51
291.1893080197575
  0
ARC
  5
55B
330
1F
100
AcDbEntity
  8
0
100
AcDbCircle
 10
1070.915906167007
 20
1810.953858622863
 30
0.0
 40
54.27600177428294
100
AcDbArc
 50
245.2263186509195
 51
294.7736813493077
  0
ARC
  5
55C
330
1F
100
AcDbEntity
  8
0
100
AcDbCircle
 10
973.6575973842118
 20
1778.649312287172
 30
0.0
 40
18.83062952425546
100
AcDbArc
 50
244.3603398615388
 51
295.6396601384611
  0
LINE
  5
55D
330
1F
100
AcDbEntity
  8
0
100
AcDbLine
 10
1130.910107054245
 20
1770.299430013218
 30
0.0
 11
1111.485939966274
 21
1772.27338403459
 31
0.0
  0
INSERT
  5
55E
330
1F
100
AcDbEntity
  8
0
100
AcDbBlockReference
  2
_DOTSMALL
 10
1323.270391750069
 20
1761.672874205839
 30
0.0
 41
25.0
 42
25.0
 43
25.0
 50
270.0
  0
LINE
  5
55F
330
1F
100
AcDbEntity
  8
0
100
AcDbLine
 10
1240.616867041841
 20
1761.672874205839
 30
0.0
 11
1323.270391750069
 21
1761.672874205839
 31
0.0
  0
INSERT
  5
560
330
1F
100
AcDbEntity
  8
0
100
AcDbBlockReference
  2
_DOTSMALL
 10
1323.270391750069
 20
1761.672874205839
 30
0.0
 41
25.0
 42
25.0
 43
25.0
 50
90.0
  0
LINE
  5
561
330
1F
100
AcDbEntity
  8
0
100
AcDbLine
 10
1240.616867041841
 20
1761.672874205839
 30
0.0
 11
1323.270391750069
 21
1761.672874205839
 31
0.0
  0
ARC
  5
562
330
1F
100
AcDbEntity
  8
0
100
AcDbCircle
 10
1072.644252915895
 20
1838.072600300847
 30
0.0
 40
20.57910459210134
100
AcDbArc
 50
179.6811064804872
 51
289.5787001824699
  0
ARC
  5
563
330
1F
100
AcDbEntity
  8
0
100
AcDbCircle
 10
993.8441086175298
 20
1814.216987074407
 30
0.0
 40
111.7728192568552
100
AcDbArc
 50
359.9402225295563
 51
12.91765025389036
  0
MTEXT
  5
564
330
1F
100
AcDbEntity
  8
0
 62
   255
100
AcDbMText
 10
1302.992246054706
 20
1816.672874205844
 30
0.0
 40
30.0
 41
0.0
 71
     5
 72
     1
  1
110
  7
ｽﾀｲﾙ2
 11
0.0000000000000001
 21
1.0
 31
0.0
1001
ACAD
1000
MTEXTBEGIN
1070
    73
1070
     1
1070
    44
1040
1.0
1070
    74
1070
     0
1000
MTEXTEND
  0
ARC
  5
565
330
1F
100
AcDbEntity
  8
0
100
AcDbCircle
 10
1147.855772475457
 20
1803.894593184335
 30
0.0
 40
14.70319572620801
100
AcDbArc
 50
146.3458272490086
 51
213.6541727509913
  0
ARC
  5
566
330
1F
100
AcDbEntity
  8
0
100
AcDbCircle
 10
1088.640428960512
 20
1803.894593184335
 30
0.0
 40
18.83062952425546
100
AcDbArc
 50
334.3603398614806
 51
25.63966013851934
  0
LINE
  5
567
330
1F
100
AcDbEntity
  8
0
100
AcDbLine
 10
1110.164060360482
 20
1804.564146513392
 30
0.0
 11
1128.600564854917
 21
1803.577169502705
 31
0.0
  0
LINE
  5
568
330
1F
100
AcDbEntity
  8
0
100
AcDbLine
 10
1130.575890041982
 20
1801.603215481335
 30
0.0
 11
1110.164060360482
 21
1801.603215481335
 31
0.0
  0
ARC
  5
569
330
1F
100
AcDbEntity
  8
0
100
AcDbCircle
 10
1074.380690369704
 20
1829.121841989971
 30
0.0
 40
11.64406992900598
100
AcDbArc
 50
296.3027226554956
 51
359.9999999998958
  0
ARC
  5
56A
330
1F
100
AcDbEntity
  8
0
100
AcDbCircle
 10
1073.507045281774
 20
1832.61926638963
 30
0.0
 40
10.87735064798026
100
AcDbArc
 50
211.2268771990526
 51
341.6267402727856
  0
ARC
  5
56B
330
1F
100
AcDbEntity
  8
0
100
AcDbCircle
 10
1082.942766952022
 20
1832.798880242752
 30
0.0
 40
20.85343364328423
100
AcDbArc
 50
17.88707350816728
 51
155.4017735913014
  0
ARC
  5
56C
330
1F
100
AcDbEntity
  8
0
100
AcDbCircle
 10
1080.041589038773
 20
1834.475811042273
 30
0.0
 40
17.52038392394176
100
AcDbArc
 50
156.4389025085872
 51
205.3296505612276
  0
ARC
  5
56D
330
1F
100
AcDbEntity
  8
0
100
AcDbCircle
 10
1084.919203593926
 20
1828.897000851176
 30
0.0
 40
1.128188444007362
100
AcDbArc
 50
11.49567458176565
 51
164.9126519477544
  0
LINE
  5
56E
330
1F
100
AcDbEntity
  8
0
100
AcDbLine
 10
1203.977422348623
 20
1871.672874205842
 30
0.0
 11
1402.99737630094
 21
1871.672874205842
 31
0.0
  0
INSERT
  5
56F
330
1F
100
AcDbEntity
  8
0
100
AcDbBlockReference
  2
_DOTSMALL
 10
1323.270391750069
 20
1871.672874205842
 30
0.0
 41
25.0
 42
25.0
 43
25.0
 50
90.0
  0
LINE
  5
570
330
1F
100
AcDbEntity
  8
0
100
AcDbLine
 10
1330.465609228296
 20
1871.672874205842
 30
0.0
 11
1323.270391750069
 21
1871.672874205842
 31
0.0
  0
INSERT
  5
571
330
1F
100
AcDbEntity
  8
0
100
AcDbBlockReference
  2
_DOTSMALL
 10
1402.99737630094
 20
1871.672874205842
 30
0.0
 41
25.0
 42
25.0
 43
25.0
 50
90.0
  0
ENDSEC
  0
SECTION
  2
OBJECTS
  0
DICTIONARY
  5
C
330
0
100
AcDbDictionary
  3
ACAD_GROUP
350
D
  3
ACAD_LAYOUT
350
1A
  3
ACAD_MLINESTYLE
350
17
  3
ACAD_PLOTSETTINGS
350
19
1001
ACAD
1000
TREAT_AS_HARD
1070
     0
  0
DICTIONARY
  5
573
330
1F
100
AcDbDictionary
  3
ACAD_LAYOUTSELFREF
350
7BB
1001
ACAD
1000
TREAT_AS_HARD
1070
     1
  0
DICTIONARY
  5
575
330
1B
100
AcDbDictionary
  3
ACAD_LAYOUTSELFREF
350
7BA
1001
ACAD
1000
TREAT_AS_HARD
1070
     1
  0
DICTIONARY
  5
D
102
{ACAD_REACTORS
330
C
102
}
330
C
100
AcDbDictionary
1001
ACAD
1000
TREAT_AS_HARD
1070
     0
  0
DICTIONARY
  5
1A
102
{ACAD_REACTORS
330
C
102
}
330
C
100
AcDbDictionary
1001
ACAD
1000
TREAT_AS_HARD
1070
     0
  0
DICTIONARY
  5
17
102
{ACAD_REACTORS
330
C
102
}
330
C
100
AcDbDictionary
  3
STANDARD
350
18
1001
ACAD
1000
TREAT_AS_HARD
1070
     0
  0
DICTIONARY
  5
19
102
{ACAD_REACTORS
330
C
102
}
330
C
100
AcDbDictionary
1001
ACAD
1000
TREAT_AS_HARD
1070
     0
  0
XRECORD
  5
7BB
102
{ACAD_REACTORS
330
573
102
}
330
573
100
AcDbXrecord
340
1F
  0
XRECORD
  5
7BA
102
{ACAD_REACTORS
330
575
102
}
330
575
100
AcDbXrecord
340
1B
  0
MLINESTYLE
  5
18
102
{ACAD_REACTORS
330
17
102
}
330
17
100
AcDbMlineStyle
  2
STANDARD
 70
     0
  3

 62
   256
 51
90.0
 52
90.0
 71
     2
 49
0.5
 62
   256
  6
BYLAYER
 49
-0.5
 62
   256
  6
BYLAYER
  0
ENDSEC
  0
EOF
