  0
SECTION
  2
HEADER
  9
$ACADVER
  1
AC1012
  9
$DWGCODEPAGE
  3
dos932
  9
$INSBASE
 10
0.0
 20
0.0
 30
0.0
  9
$EXTMIN
 10
343.2075022382675
 20
247.4863550946149
 30
0.0
  9
$EXTMAX
 10
2460.630180605656
 20
2215.753220412584
 30
0.0
  9
$LIMMIN
 10
0.0
 20
0.0
  9
$LIMMAX
 10
420.0
 20
297.0
  9
$ORTHOMODE
 70
     0
  9
$REGENMODE
 70
     1
  9
$FILLMODE
 70
     1
  9
$QTEXTMODE
 70
     0
  9
$MIRRTEXT
 70
     1
  9
$DRAGMODE
 70
     2
  9
$LTSCALE
 40
1.0
  9
$OSMODE
 70
   127
  9
$ATTMODE
 70
     1
  9
$TEXTSIZE
 40
2.5
  9
$TRACEWID
 40
1.0
  9
$TEXTSTYLE
  7
STANDARD
  9
$CLAYER
  8
0
  9
$CELTYPE
  6
BYLAYER
  9
$CECOLOR
 62
   256
  9
$CELTSCALE
 40
1.0
  9
$DELOBJ
 70
     1
  9
$DISPSILH
 70
     0
  9
$DIMSCALE
 40
1.0
  9
$DIMASZ
 40
2.5
  9
$DIMEXO
 40
0.625
  9
$DIMDLI
 40
3.75
  9
$DIMRND
 40
0.0
  9
$DIMDLE
 40
0.0
  9
$DIMEXE
 40
1.25
  9
$DIMTP
 40
0.0
  9
$DIMTM
 40
0.0
  9
$DIMTXT
 40
2.5
  9
$DIMCEN
 40
2.5
  9
$DIMTSZ
 40
0.0
  9
$DIMTOL
 70
     0
  9
$DIMLIM
 70
     0
  9
$DIMTIH
 70
     0
  9
$DIMTOH
 70
     0
  9
$DIMSE1
 70
     0
  9
$DIMSE2
 70
     0
  9
$DIMTAD
 70
     1
  9
$DIMZIN
 70
     8
  9
$DIMBLK
  1

  9
$DIMASO
 70
     1
  9
$DIMSHO
 70
     1
  9
$DIMPOST
  1

  9
$DIMAPOST
  1

  9
$DIMALT
 70
     0
  9
$DIMALTD
 70
     3
  9
$DIMALTF
 40
0.03937007874016
  9
$DIMLFAC
 40
1.0
  9
$DIMTOFL
 70
     1
  9
$DIMTVP
 40
0.0
  9
$DIMTIX
 70
     0
  9
$DIMSOXD
 70
     0
  9
$DIMSAH
 70
     0
  9
$DIMBLK1
  1

  9
$DIMBLK2
  1

  9
$DIMSTYLE
  2
ISO-25
  9
$DIMCLRD
 70
     0
  9
$DIMCLRE
 70
     0
  9
$DIMCLRT
 70
     0
  9
$DIMTFAC
 40
1.0
  9
$DIMGAP
 40
0.625
  9
$DIMJUST
 70
     0
  9
$DIMSD1
 70
     0
  9
$DIMSD2
 70
     0
  9
$DIMTOLJ
 70
     0
  9
$DIMTZIN
 70
     8
  9
$DIMALTZ
 70
     0
  9
$DIMALTTZ
 70
     0
  9
$DIMFIT
 70
     3
  9
$DIMUPT
 70
     0
  9
$DIMUNIT
 70
     2
  9
$DIMDEC
 70
     2
  9
$DIMTDEC
 70
     2
  9
$DIMALTU
 70
     2
  9
$DIMALTTD
 70
     3
  9
$DIMTXSTY
  7
STANDARD
  9
$DIMAUNIT
 70
     0
  9
$LUNITS
 70
     2
  9
$LUPREC
 70
     4
  9
$SKETCHINC
 40
1.0
  9
$FILLETRAD
 40
10.0
  9
$AUNITS
 70
     0
  9
$AUPREC
 70
     0
  9
$MENU
  1
.
  9
$ELEVATION
 40
0.0
  9
$PELEVATION
 40
0.0
  9
$THICKNESS
 40
0.0
  9
$LIMCHECK
 70
     0
  9
$BLIPMODE
 70
     0
  9
$CHAMFERA
 40
10.0
  9
$CHAMFERB
 40
10.0
  9
$CHAMFERC
 40
20.0
  9
$CHAMFERD
 40
0.0
  9
$SKPOLY
 70
     0
  9
$TDCREATE
 40
2453042.933747639
  9
$TDUPDATE
 40
2453042.939011678
  9
$TDINDWG
 40
0.0003405440
  9
$TDUSRTIMER
 40
0.0003405440
  9
$USRTIMER
 70
     1
  9
$ANGBASE
 50
0.0
  9
$ANGDIR
 70
     0
  9
$PDMODE
 70
     0
  9
$PDSIZE
 40
0.0
  9
$PLINEWID
 40
0.0
  9
$COORDS
 70
     0
  9
$SPLFRAME
 70
     0
  9
$SPLINETYPE
 70
     6
  9
$SPLINESEGS
 70
     8
  9
$ATTDIA
 70
     0
  9
$ATTREQ
 70
     1
  9
$HANDLING
 70
 22529
  9
$HANDSEED
  5
12B0
  9
$SURFTAB1
 70
     6
  9
$SURFTAB2
 70
     6
  9
$SURFTYPE
 70
     6
  9
$SURFU
 70
     6
  9
$SURFV
 70
     6
  9
$UCSNAME
  2

  9
$UCSORG
 10
0.0
 20
0.0
 30
0.0
  9
$UCSXDIR
 10
1.0
 20
0.0
 30
0.0
  9
$UCSYDIR
 10
0.0
 20
1.0
 30
0.0
  9
$PUCSNAME
  2

  9
$PUCSORG
 10
0.0
 20
0.0
 30
0.0
  9
$PUCSXDIR
 10
1.0
 20
0.0
 30
0.0
  9
$PUCSYDIR
 10
0.0
 20
1.0
 30
0.0
  9
$USERI1
 70
     0
  9
$USERI2
 70
     0
  9
$USERI3
 70
     0
  9
$USERI4
 70
     0
  9
$USERI5
 70
     0
  9
$USERR1
 40
0.0
  9
$USERR2
 40
0.0
  9
$USERR3
 40
0.0
  9
$USERR4
 40
0.0
  9
$USERR5
 40
0.0
  9
$WORLDVIEW
 70
     1
  9
$SHADEDGE
 70
     3
  9
$SHADEDIF
 70
    70
  9
$TILEMODE
 70
     1
  9
$MAXACTVP
 70
    48
  9
$PINSBASE
 10
0.0
 20
0.0
 30
0.0
  9
$PLIMCHECK
 70
     0
  9
$PEXTMIN
 10
1.000000000000000E+20
 20
1.000000000000000E+20
 30
1.000000000000000E+20
  9
$PEXTMAX
 10
-1.000000000000000E+20
 20
-1.000000000000000E+20
 30
-1.000000000000000E+20
  9
$PLIMMIN
 10
0.0
 20
0.0
  9
$PLIMMAX
 10
420.0
 20
297.0
  9
$UNITMODE
 70
     0
  9
$VISRETAIN
 70
     1
  9
$PLINEGEN
 70
     0
  9
$PSLTSCALE
 70
     1
  9
$TREEDEPTH
 70
  3020
  9
$PICKSTYLE
 70
     1
  9
$CMLSTYLE
  2
STANDARD
  9
$CMLJUST
 70
     0
  9
$CMLSCALE
 40
20.0
  9
$SAVEIMAGES
 70
     1
  0
ENDSEC
  0
SECTION
  2
CLASSES
  0
CLASS
  1
ACDBDICTIONARYWDFLT
  2
AcDbDictionaryWithDefault
  3
AutoCAD 2000
 90
    32768
280
     0
281
     0
  0
CLASS
  1
ACDBPLACEHOLDER
  2
AcDbPlaceHolder
  3
AutoCAD 2000
 90
    32768
280
     0
281
     0
  0
CLASS
  1
LAYOUT
  2
AcDbLayout
  3
AutoCAD 2000
 90
    32768
280
     0
281
     0
  0
CLASS
  1
DICTIONARYVAR
  2
AcDbDictionaryVar
  3
AutoCAD 2000
 90
    32768
280
     0
281
     0
  0
CLASS
  1
LONG_TRANSACTION
  2
AcDbLongTransaction
  3
AutoCAD 2000
 90
    32768
280
     0
281
     0
  0
CLASS
  1
LWPOLYLINE
  2
AcDbPolyline
  3
AutoCAD 2000
 90
    32768
280
     0
281
     1
  0
CLASS
  1
HATCH
  2
AcDbHatch
  3
AutoCAD 2000
 90
    32768
280
     0
281
     1
  0
CLASS
  1
XRECORD
  2
AcDbXrecord
  3
AutoCAD 2000
 90
    32768
280
     0
281
     0
  0
CLASS
  1
LONG_TRANSACTION
  2
AcDbLongTransaction
  3
AutoCAD 2000
 90
    32768
280
     0
281
     0
  0
CLASS
  1
LWPOLYLINE
  2
AcDbPolyline
  3
AutoCAD 2000
 90
    32768
280
     0
281
     1
  0
CLASS
  1
HATCH
  2
AcDbHatch
  3
AutoCAD 2000
 90
    32768
280
     0
281
     1
  0
CLASS
  1
XRECORD
  2
AcDbXrecord
  3
AutoCAD 2000
 90
    32768
280
     0
281
     0
  0
ENDSEC
  0
SECTION
  2
TABLES
  0
TABLE
  2
VPORT
  5
8
330
0
100
AcDbSymbolTable
 70
     2
  0
VPORT
  5
FF5
330
8
100
AcDbSymbolTableRecord
100
AcDbViewportTableRecord
  2
*ACTIVE
 70
     0
 10
0.0
 20
0.0
 11
1.0
 21
1.0
 12
1401.901398803823
 22
1231.620157786981
 13
0.0
 23
0.0
 14
10.0
 24
10.0
 15
10.0
 25
10.0
 16
0.0
 26
0.0
 36
1.0
 17
0.0
 27
0.0
 37
0.0
 40
1989.643115863791
 41
1.787387387387387
 42
50.0
 43
0.0
 44
0.0
 50
0.0
 51
0.0
 71
     0
 72
   100
 73
     1
 74
     3
 75
     0
 76
     0
 77
     0
 78
     0
  0
ENDTAB
  0
TABLE
  2
LTYPE
  5
5
330
0
100
AcDbSymbolTable
 70
     1
  0
LTYPE
  5
14
330
5
100
AcDbSymbolTableRecord
100
AcDbLinetypeTableRecord
  2
BYBLOCK
 70
     0
  3

 72
    65
 73
     0
 40
0.0
  0
LTYPE
  5
15
330
5
100
AcDbSymbolTableRecord
100
AcDbLinetypeTableRecord
  2
BYLAYER
 70
     0
  3

 72
    65
 73
     0
 40
0.0
  0
LTYPE
  5
16
330
5
100
AcDbSymbolTableRecord
100
AcDbLinetypeTableRecord
  2
CONTINUOUS
 70
     0
  3
Solid line
 72
    65
 73
     0
 40
0.0
  0
ENDTAB
  0
TABLE
  2
LAYER
  5
2
330
0
100
AcDbSymbolTable
 70
     2
  0
LAYER
  5
10
330
2
100
AcDbSymbolTableRecord
100
AcDbLayerTableRecord
  2
0
 70
     0
 62
     7
  6
CONTINUOUS
  0
LAYER
  5
48
330
2
100
AcDbSymbolTableRecord
100
AcDbLayerTableRecord
  2
1
 70
     0
 62
     4
  6
CONTINUOUS
  0
ENDTAB
  0
TABLE
  2
STYLE
  5
3
330
0
100
AcDbSymbolTable
 70
     4
  0
STYLE
  5
11
330
3
100
AcDbSymbolTableRecord
100
AcDbTextStyleTableRecord
  2
STANDARD
 70
     0
 40
0.0
 41
1.0
 50
0.0
 71
     0
 42
2.5
  3
txt
  4

  0
STYLE
  5
4A
330
3
100
AcDbSymbolTableRecord
100
AcDbTextStyleTableRecord
  2
MS-G
 70
     0
 40
3.0
 41
1.0
 50
0.0
 71
     0
 42
3.0
  3
MS Gothic.ttf
  4

1001
ACAD
1000
MS Gothic
1071
    32817
  0
STYLE
  5
4B
330
3
100
AcDbSymbolTableRecord
100
AcDbTextStyleTableRecord
  2
CENTURY
 70
     0
 40
40.0
 41
1.0
 50
0.0
 71
     0
 42
40.0
  3
CENTURY.TTF
  4

1001
ACAD
1000
Century
1071
       18
  0
STYLE
  5
4C
330
3
100
AcDbSymbolTableRecord
100
AcDbTextStyleTableRecord
  2
ｽﾀｲﾙ2
 70
     0
 40
30.0
 41
1.0
 50
0.0
 71
     0
 42
10.0
  3
CENTURY.TTF
  4

1001
ACAD
1000
Century
1071
       18
  0
ENDTAB
  0
TABLE
  2
VIEW
  5
6
330
0
100
AcDbSymbolTable
 70
     0
  0
ENDTAB
  0
TABLE
  2
UCS
  5
7
330
0
100
AcDbSymbolTable
 70
     0
  0
ENDTAB
  0
TABLE
  2
APPID
  5
9
330
0
100
AcDbSymbolTable
 70
     1
  0
APPID
  5
12
330
9
100
AcDbSymbolTableRecord
100
AcDbRegAppTableRecord
  2
ACAD
 70
     0
  0
ENDTAB
  0
TABLE
  2
DIMSTYLE
  5
A
330
0
100
AcDbSymbolTable
 70
     1
  0
DIMSTYLE
105
27
330
A
100
AcDbSymbolTableRecord
100
AcDbDimStyleTableRecord
  2
ISO-25
 70
     0
  3

  4

  5

  6

  7

 40
1.0
 41
2.5
 42
0.625
 43
3.75
 44
1.25
 45
0.0
 46
0.0
 47
0.0
 48
0.0
140
2.5
141
2.5
142
0.0
143
0.03937007874016
144
1.0
145
0.0
146
1.0
147
0.625
 71
     0
 72
     0
 73
     0
 74
     0
 75
     0
 76
     0
 77
     1
 78
     8
170
     0
171
     3
172
     1
173
     0
174
     0
175
     0
176
     0
177
     0
178
     0
270
     2
271
     2
272
     2
273
     2
274
     3
340
11
275
     0
280
     0
281
     0
282
     0
283
     0
284
     8
285
     0
286
     0
287
     3
288
     0
  0
ENDTAB
  0
TABLE
  2
BLOCK_RECORD
  5
1
330
0
100
AcDbSymbolTable
 70
     4
  0
BLOCK_RECORD
  5
1F
102
{ACAD_XDICTIONARY
360
A2F
102
}
330
1
100
AcDbSymbolTableRecord
100
AcDbBlockTableRecord
  2
*MODEL_SPACE
  0
BLOCK_RECORD
  5
1B
102
{ACAD_XDICTIONARY
360
A31
102
}
330
1
100
AcDbSymbolTableRecord
100
AcDbBlockTableRecord
  2
*PAPER_SPACE
  0
BLOCK_RECORD
  5
44
330
1
100
AcDbSymbolTableRecord
100
AcDbBlockTableRecord
  2
_DOTSMALL
  0
BLOCK_RECORD
  5
E1F
330
1
100
AcDbSymbolTableRecord
100
AcDbBlockTableRecord
  2
*X3
  0
ENDTAB
  0
ENDSEC
  0
SECTION
  2
BLOCKS
  0
BLOCK
  5
20
330
1F
100
AcDbEntity
  8
0
100
AcDbBlockBegin
  2
*MODEL_SPACE
 70
     0
 10
0.0
 20
0.0
 30
0.0
  3
*MODEL_SPACE
  1

  0
ENDBLK
  5
21
330
1F
100
AcDbEntity
  8
0
100
AcDbBlockEnd
  0
BLOCK
  5
1C
330
1B
100
AcDbEntity
 67
     1
  8
0
100
AcDbBlockBegin
  2
*PAPER_SPACE
 70
     0
 10
0.0
 20
0.0
 30
0.0
  3
*PAPER_SPACE
  1

  0
ENDBLK
  5
1D
330
1B
100
AcDbEntity
 67
     1
  8
0
100
AcDbBlockEnd
  0
BLOCK
  5
46
330
44
100
AcDbEntity
  8
0
100
AcDbBlockBegin
  2
_DOTSMALL
 70
     0
 10
0.0
 20
0.0
 30
0.0
  3
_DOTSMALL
  1

  0
POLYLINE
  5
45
330
44
100
AcDbEntity
  8
1
 62
     0
100
AcDb2dPolyline
 66
     1
 10
0.0
 20
0.0
 30
0.0
 70
     1
 40
0.5
 41
0.5
  0
VERTEX
  5
FF9
330
45
100
AcDbEntity
  8
1
 62
     0
100
AcDbVertex
100
AcDb2dVertex
 10
-0.0625
 20
0.0
 30
0.0
 42
1.0
  0
VERTEX
  5
FFA
330
45
100
AcDbEntity
  8
1
 62
     0
100
AcDbVertex
100
AcDb2dVertex
 10
0.0625
 20
0.0
 30
0.0
 42
1.0
  0
SEQEND
  5
FFB
330
45
100
AcDbEntity
  8
1
 62
     0
  0
ENDBLK
  5
47
330
44
100
AcDbEntity
  8
0
100
AcDbBlockEnd
  0
BLOCK
  5
E28
330
E1F
100
AcDbEntity
  8
0
100
AcDbBlockBegin
  2
*X3
 70
     1
 10
0.0
 20
0.0
 30
0.0
  3
*X3
  1

  0
LINE
  5
E20
330
E1F
100
AcDbEntity
  8
0
 62
     0
100
AcDbLine
 10
2235.581163813847
 20
443.1781960891749
 30
0.0
 11
2246.964536065563
 21
431.7948238374519
 31
0.0
  0
LINE
  5
E21
330
E1F
100
AcDbEntity
  8
0
 62
     0
100
AcDbLine
 10
2226.380720318433
 20
459.1138316753785
 30
0.0
 11
2249.429787470166
 21
436.0647645236459
 31
0.0
  0
LINE
  5
E22
330
E1F
100
AcDbEntity
  8
0
 62
     0
100
AcDbLine
 10
2227.801122311131
 20
464.4286217734916
 30
0.0
 11
2251.895038874768
 21
440.334705209847
 31
0.0
  0
LINE
  5
E23
330
E1F
100
AcDbEntity
  8
0
 62
     0
100
AcDbLine
 10
2234.536314401935
 20
464.4286217734916
 30
0.0
 11
2254.360290279378
 21
444.6046458960409
 31
0.0
  0
LINE
  5
E24
330
E1F
100
AcDbEntity
  8
0
 62
     0
100
AcDbLine
 10
2241.271506492739
 20
464.4286217734989
 30
0.0
 11
2256.825541683982
 21
448.8745865822493
 31
0.0
  0
LINE
  5
E25
330
E1F
100
AcDbEntity
  8
0
 62
     0
100
AcDbLine
 10
2248.006698583544
 20
464.4286217734916
 30
0.0
 11
2259.290793088577
 21
453.1445272684504
 31
0.0
  0
LINE
  5
E26
330
E1F
100
AcDbEntity
  8
0
 62
     0
100
AcDbLine
 10
2254.74189067434
 20
464.4286217734843
 30
0.0
 11
2261.756044493173
 21
457.4144679546516
 31
0.0
  0
LINE
  5
E27
330
E1F
100
AcDbEntity
  8
0
 62
     0
100
AcDbLine
 10
2261.477082765137
 20
464.4286217734916
 30
0.0
 11
2264.221295897776
 21
461.6844086408455
 31
0.0
  0
ENDBLK
  5
E29
330
E1F
100
AcDbEntity
  8
0
100
AcDbBlockEnd
  0
ENDSEC
  0
SECTION
  2
ENTITIES
  0
LINE
  5
541
330
1F
100
AcDbEntity
  8
0
  6
CONTINUOUS
100
AcDbLine
 10
936.5101827159694
 20
971.9587067176004
 30
0.0
 11
936.5101827159694
 21
1166.953632783235
 31
0.0
  0
LINE
  5
542
330
1F
100
AcDbEntity
  8
0
  6
CONTINUOUS
100
AcDbLine
 10
924.5101827159695
 20
971.9587067176004
 30
0.0
 11
924.5101827159695
 21
1166.953632783235
 31
0.0
  0
LINE
  5
543
330
1F
100
AcDbEntity
  8
0
  6
CONTINUOUS
100
AcDbLine
 10
844.1169434796545
 20
989.6822136205338
 30
0.0
 11
906.8142395693183
 21
1108.741904586093
 31
0.0
  0
LINE
  5
544
330
1F
100
AcDbEntity
  8
0
  6
CONTINUOUS
100
AcDbLine
 10
849.4168057609556
 20
986.8694153230022
 30
0.0
 11
912.2160113593478
 21
1106.122628423843
 31
0.0
  0
LINE
  5
545
330
1F
100
AcDbEntity
  8
0
  6
CONTINUOUS
100
AcDbLine
 10
1011.603559670983
 20
986.8694153230022
 30
0.0
 11
948.8043540725909
 21
1106.122628423843
 31
0.0
  0
LINE
  5
546
330
1F
100
AcDbEntity
  8
0
  6
CONTINUOUS
100
AcDbLine
 10
1016.903421952286
 20
989.6822136205338
 30
0.0
 11
954.2061258626224
 21
1108.741904586093
 31
0.0
  0
ARC
  5
547
330
1F
100
AcDbEntity
  8
0
100
AcDbCircle
 10
2171.497260462002
 20
1024.525820391245
 30
0.0
 40
27.47268131795497
100
AcDbArc
 50
147.7604243756004
 51
212.2395756243995
  0
ARC
  5
548
330
1F
100
AcDbEntity
  8
0
100
AcDbCircle
 10
2079.334946868498
 20
1024.525820391245
 30
0.0
 40
41.59279291423044
100
AcDbArc
 50
339.3683311470979
 51
20.63166885290214
  0
ARC
  5
549
330
1F
100
AcDbEntity
  8
0
100
AcDbCircle
 10
1300.834946868487
 20
1024.525820391246
 30
0.0
 40
41.59279291423044
100
AcDbArc
 50
339.3683311470979
 51
20.63166885290214
  0
ARC
  5
54A
330
1F
100
AcDbEntity
  8
0
100
AcDbCircle
 10
1265.834946868487
 20
1024.525820391246
 30
0.0
 40
41.59279291423044
100
AcDbArc
 50
339.3683311470979
 51
20.63166885290214
  0
ARC
  5
54B
330
1F
100
AcDbEntity
  8
0
100
AcDbCircle
 10
1357.997260461991
 20
1024.525820391246
 30
0.0
 40
27.47268131795497
100
AcDbArc
 50
147.7604243756004
 51
212.2395756243995
  0
ARC
  5
54C
330
1F
100
AcDbEntity
  8
0
100
AcDbCircle
 10
1392.997260461991
 20
1024.525820391246
 30
0.0
 40
27.47268131795497
100
AcDbArc
 50
147.7604243756004
 51
212.2395756243995
  0
LINE
  5
54D
330
1F
100
AcDbEntity
  8
0
100
AcDbLine
 10
1451.947682715976
 20
537.628220412586
 30
0.0
 11
1451.94768271598
 21
1905.203920474351
 31
0.0
  0
LINE
  5
54E
330
1F
100
AcDbEntity
  8
0
100
AcDbLine
 10
1464.947682715978
 20
537.628220412586
 30
0.0
 11
1464.947682715978
 21
1902.588631191299
 31
0.0
  0
LINE
  5
54F
330
1F
100
AcDbEntity
  8
0
100
AcDbLine
 10
1547.13518271598
 20
537.628220412586
 30
0.0
 11
1547.13518271598
 21
1879.050058556299
 31
0.0
  0
LINE
  5
550
330
1F
100
AcDbEntity
  8
0
100
AcDbLine
 10
1560.135182715978
 20
537.628220412586
 30
0.0
 11
1560.135182715984
 21
1874.158981267421
 31
0.0
  0
LINE
  5
551
330
1F
100
AcDbEntity
  8
0
100
AcDbLine
 10
1642.32268271598
 20
537.628220412586
 30
0.0
 11
1642.32268271598
 21
1834.930740412891
 31
0.0
  0
LINE
  5
552
330
1F
100
AcDbEntity
  8
0
100
AcDbLine
 10
1655.322682715978
 20
537.628220412586
 30
0.0
 11
1655.322682715978
 21
1827.282951539462
 31
0.0
  0
LINE
  5
553
330
1F
100
AcDbEntity
  8
0
100
AcDbLine
 10
1369.76018271598
 20
537.628220412586
 30
0.0
 11
1369.760182715983
 21
1915.141115991438
 31
0.0
  0
LINE
  5
554
330
1F
100
AcDbEntity
  8
0
100
AcDbLine
 10
1339.760182715978
 20
507.6282204125865
 30
0.0
 11
1339.760182715978
 21
2045.996307667838
 31
0.0
  0
LINE
  5
555
330
1F
100
AcDbEntity
  8
0
100
AcDbLine
 10
1334.760182715978
 20
507.6282204125861
 30
0.0
 11
1334.760182715978
 21
2045.996307667838
 31
0.0
  0
LINE
  5
556
330
1F
100
AcDbEntity
  8
0
100
AcDbLine
 10
1304.76018271598
 20
537.628220412586
 30
0.0
 11
1304.760182715978
 21
1915.141115991438
 31
0.0
  0
LINE
  5
557
330
1F
100
AcDbEntity
  8
0
100
AcDbLine
 10
1019.197682715976
 20
537.628220412586
 30
0.0
 11
1019.197682715978
 21
1827.282951539461
 31
0.0
  0
LINE
  5
558
330
1F
100
AcDbEntity
  8
0
100
AcDbLine
 10
1032.197682715978
 20
537.628220412586
 30
0.0
 11
1032.197682715978
 21
1834.930740412892
 31
0.0
  0
LINE
  5
559
330
1F
100
AcDbEntity
  8
0
100
AcDbLine
 10
1114.385182715978
 20
537.6282204125865
 30
0.0
 11
1114.385182715978
 21
1874.158981267424
 31
0.0
  0
LINE
  5
55A
330
1F
100
AcDbEntity
  8
0
100
AcDbLine
 10
1127.385182715978
 20
537.628220412586
 30
0.0
 11
1127.38518271598
 21
1879.0500585563
 31
0.0
  0
LINE
  5
55B
330
1F
100
AcDbEntity
  8
0
100
AcDbLine
 10
1209.572682715974
 20
537.6282204125865
 30
0.0
 11
1209.572682715973
 21
1902.588631191298
 31
0.0
  0
LINE
  5
55C
330
1F
100
AcDbEntity
  8
0
100
AcDbLine
 10
1222.572682715978
 20
537.628220412586
 30
0.0
 11
1222.572682715974
 21
1905.203920474351
 31
0.0
  0
LINE
  5
55D
330
1F
100
AcDbEntity
  8
0
100
AcDbLine
 10
638.4476827159804
 20
537.628220412586
 30
0.0
 11
638.4476827159804
 21
1756.313567100836
 31
0.0
  0
LINE
  5
55E
330
1F
100
AcDbEntity
  8
0
100
AcDbLine
 10
651.4476827159767
 20
537.6282204125865
 30
0.0
 11
651.4476827159748
 21
1753.91898180939
 31
0.0
  0
LINE
  5
55F
330
1F
100
AcDbEntity
  8
0
100
AcDbLine
 10
746.6351827159785
 20
537.628220412586
 30
0.0
 11
746.6351827159767
 21
1746.421322066363
 31
0.0
  0
LINE
  5
560
330
1F
100
AcDbEntity
  8
0
100
AcDbLine
 10
733.6351827159766
 20
537.628220412586
 30
0.0
 11
733.6351827159749
 21
1746.421322066363
 31
0.0
  0
LINE
  5
561
330
1F
100
AcDbEntity
  8
0
100
AcDbLine
 10
828.8226827159785
 20
537.6282204125865
 30
0.0
 11
828.8226827159785
 21
1753.91898180939
 31
0.0
  0
LINE
  5
562
330
1F
100
AcDbEntity
  8
0
100
AcDbLine
 10
841.8226827159784
 20
537.628220412586
 30
0.0
 11
841.8226827159784
 21
1756.313567100836
 31
0.0
  0
LINE
  5
563
330
1F
100
AcDbEntity
  8
0
100
AcDbLine
 10
1832.697682715976
 20
537.628220412586
 30
0.0
 11
1832.697682715978
 21
1756.313567100836
 31
0.0
  0
LINE
  5
564
330
1F
100
AcDbEntity
  8
0
100
AcDbLine
 10
1845.697682715978
 20
537.6282204125865
 30
0.0
 11
1845.697682715978
 21
1753.91898180939
 31
0.0
  0
LINE
  5
565
330
1F
100
AcDbEntity
  8
0
100
AcDbLine
 10
1940.885182715978
 20
537.628220412586
 30
0.0
 11
1940.885182715978
 21
1746.421322066363
 31
0.0
  0
LINE
  5
566
330
1F
100
AcDbEntity
  8
0
100
AcDbLine
 10
1927.885182715978
 20
537.628220412586
 30
0.0
 11
1927.885182715978
 21
1746.421322066363
 31
0.0
  0
LINE
  5
567
330
1F
100
AcDbEntity
  8
0
100
AcDbLine
 10
2023.072682715978
 20
537.6282204125865
 30
0.0
 11
2023.07268271598
 21
1753.91898180939
 31
0.0
  0
LINE
  5
568
330
1F
100
AcDbEntity
  8
0
100
AcDbLine
 10
2036.072682715978
 20
537.628220412586
 30
0.0
 11
2036.07268271598
 21
1756.313567100836
 31
0.0
  0
LINE
  5
569
330
1F
100
AcDbEntity
  8
0
100
AcDbLine
 10
2118.260182715987
 20
1870.055674777724
 30
0.0
 11
2118.260182715987
 21
537.6282204125865
 31
0.0
  0
LINE
  5
56A
330
1F
100
AcDbEntity
  8
0
100
AcDbLine
 10
2153.260182715988
 20
1655.628220412589
 30
0.0
 11
2153.260182715989
 21
737.6282204125856
 31
0.0
  0
LINE
  5
56B
330
1F
100
AcDbEntity
  8
0
100
AcDbLine
 10
2148.260182715986
 20
1655.628220412589
 30
0.0
 11
2148.260182715984
 21
737.6282204125856
 31
0.0
  0
LINE
  5
56C
330
1F
100
AcDbEntity
  8
0
100
AcDbLine
 10
2203.260182715991
 20
1857.628220412586
 30
0.0
 11
2203.260182715989
 21
427.6282204125842
 31
0.0
  0
ARC
  5
56D
330
1F
100
AcDbEntity
  8
0
100
AcDbCircle
 10
503.0231049699548
 20
1024.525820391245
 30
0.0
 40
27.47268131795497
100
AcDbArc
 50
327.7604243756004
 51
32.23957562439952
  0
ARC
  5
56E
330
1F
100
AcDbEntity
  8
0
100
AcDbCircle
 10
595.185418563459
 20
1024.525820391245
 30
0.0
 40
41.59279291423044
100
AcDbArc
 50
159.3683311470978
 51
200.6316688529021
  0
LINE
  5
56F
330
1F
100
AcDbEntity
  8
0
100
AcDbLine
 10
526.2601827159712
 20
1655.628220412589
 30
0.0
 11
526.2601827159731
 21
737.6282204125856
 31
0.0
  0
LINE
  5
570
330
1F
100
AcDbEntity
  8
0
100
AcDbLine
 10
521.2601827159694
 20
1655.628220412589
 30
0.0
 11
521.2601827159658
 21
737.6282204125856
 31
0.0
  0
LINE
  5
571
330
1F
100
AcDbEntity
  8
0
100
AcDbLine
 10
556.2601827159694
 20
1870.055674777724
 30
0.0
 11
556.2601827159676
 21
537.6282204125865
 31
0.0
  0
LINE
  5
572
330
1F
100
AcDbEntity
  8
0
100
AcDbLine
 10
471.2601827159658
 20
1857.628220412586
 30
0.0
 11
471.2601827159676
 21
427.6282204125842
 31
0.0
  0
LINE
  5
573
330
1F
100
AcDbEntity
  8
0
100
AcDbLine
 10
2454.663293188438
 20
2212.628220412584
 30
0.0
 11
2454.663293188438
 21
427.6282204125847
 31
0.0
  0
LINE
  5
574
330
1F
100
AcDbEntity
  8
0
100
AcDbLine
 10
2372.553152117433
 20
507.6282204125852
 30
0.0
 11
2372.553152117433
 21
1857.628220412586
 31
0.0
  0
LINE
  5
575
330
1F
100
AcDbEntity
  8
0
  6
CONTINUOUS
100
AcDbLine
 10
1657.616943479671
 20
989.6822136205338
 30
0.0
 11
1720.314239569334
 21
1108.741904586093
 31
0.0
  0
LINE
  5
576
330
1F
100
AcDbEntity
  8
0
  6
CONTINUOUS
100
AcDbLine
 10
1662.916805760974
 20
986.8694153230022
 30
0.0
 11
1725.716011359366
 21
1106.122628423843
 31
0.0
  0
LINE
  5
577
330
1F
100
AcDbEntity
  8
0
  6
CONTINUOUS
100
AcDbLine
 10
1825.103559671001
 20
986.8694153230022
 30
0.0
 11
1762.304354072609
 21
1106.122628423843
 31
0.0
  0
LINE
  5
578
330
1F
100
AcDbEntity
  8
0
  6
CONTINUOUS
100
AcDbLine
 10
1830.403421952302
 20
989.6822136205338
 30
0.0
 11
1767.706125862638
 21
1108.741904586093
 31
0.0
  0
LINE
  5
579
330
1F
100
AcDbEntity
  8
0
  6
CONTINUOUS
100
AcDbLine
 10
1750.010182715987
 20
971.9587067176004
 30
0.0
 11
1750.010182715987
 21
1166.953632783235
 31
0.0
  0
LINE
  5
57A
330
1F
100
AcDbEntity
  8
0
  6
CONTINUOUS
100
AcDbLine
 10
1738.010182715987
 20
971.9587067176004
 30
0.0
 11
1738.010182715987
 21
1166.953632783235
 31
0.0
  0
LINE
  5
57B
330
1F
100
AcDbEntity
  8
0
100
AcDbLine
 10
2244.558946456621
 20
427.6282204125847
 30
0.0
 11
343.2075022382675
 21
427.6282204125847
 31
0.0
  0
LINE
  5
57C
330
1F
100
AcDbEntity
  8
0
100
AcDbLine
 10
2118.260182715989
 20
537.628220412586
 30
0.0
 11
1369.76018271598
 21
537.628220412586
 31
0.0
  0
LINE
  5
57D
330
1F
100
AcDbEntity
  8
0
100
AcDbLine
 10
2148.260182715982
 20
507.6282204125852
 30
0.0
 11
1339.760182715978
 21
507.6282204125861
 31
0.0
  0
LINE
  5
57E
330
1F
100
AcDbEntity
  8
0
100
AcDbLine
 10
521.2601827159621
 20
317.5178897754714
 30
0.0
 11
2153.260182715999
 21
317.5178897754714
 31
0.0
  0
LINE
  5
57F
330
1F
100
AcDbEntity
  8
0
100
AcDbLine
 10
471.2601827159694
 20
253.4532425118332
 30
0.0
 11
2203.260182715989
 21
253.4532425118332
 31
0.0
  0
LINE
  5
580
330
1F
100
AcDbEntity
  8
0
100
AcDbLine
 10
521.2601827159621
 20
377.6282204125847
 30
0.0
 11
521.2601827159621
 21
317.5178897754714
 31
0.0
  0
LINE
  5
581
330
1F
100
AcDbEntity
  8
0
100
AcDbLine
 10
471.2601827159694
 20
377.6282204125847
 30
0.0
 11
471.2601827159694
 21
317.5178897754714
 31
0.0
  0
LINE
  5
582
330
1F
100
AcDbEntity
  8
0
100
AcDbLine
 10
521.2601827159621
 20
377.6282204125847
 30
0.0
 11
521.2601827159621
 21
317.5178897754714
 31
0.0
  0
LINE
  5
583
330
1F
100
AcDbEntity
  8
0
100
AcDbLine
 10
471.2601827159694
 20
377.6282204125847
 30
0.0
 11
471.2601827159694
 21
253.4532425118332
 31
0.0
  0
INSERT
  5
584
330
1F
100
AcDbEntity
  8
0
100
AcDbBlockReference
  2
_DOTSMALL
 10
471.2601827159694
 20
253.4532425118332
 30
0.0
 41
25.0
 42
25.0
 43
25.0
 50
180.0
  0
INSERT
  5
585
330
1F
100
AcDbEntity
  8
0
100
AcDbBlockReference
  2
_DOTSMALL
 10
521.2601827159621
 20
317.5178897754714
 30
0.0
 41
25.0
 42
25.0
 43
25.0
 50
180.0
  0
MTEXT
  5
586
330
1F
100
AcDbEntity
  8
0
 62
   255
100
AcDbMText
 10
497.8226827159658
 20
337.7960354708358
 30
0.0
 40
30.0
 41
0.0
 71
     5
 72
     1
  1
50
  7
ｽﾀｲﾙ2
1001
ACAD
1000
MTEXTBEGIN
1070
    73
1070
     1
1070
    44
1040
1.0
1070
    74
1070
     0
1000
MTEXTEND
  0
INSERT
  5
587
330
1F
100
AcDbEntity
  8
0
100
AcDbBlockReference
  2
_DOTSMALL
 10
521.2601827159621
 20
317.5178897754714
 30
0.0
 41
25.0
 42
25.0
 43
25.0
  0
INSERT
  5
588
330
1F
100
AcDbEntity
  8
0
100
AcDbBlockReference
  2
_DOTSMALL
 10
471.2601827159694
 20
317.5178897754714
 30
0.0
 41
25.0
 42
25.0
 43
25.0
 50
180.0
  0
LINE
  5
589
330
1F
100
AcDbEntity
  8
0
100
AcDbLine
 10
471.2601827159694
 20
317.5178897754714
 30
0.0
 11
521.2601827159621
 21
317.5178897754714
 31
0.0
  0
MTEXT
  5
58A
330
1F
100
AcDbEntity
  8
0
 62
   255
100
AcDbMText
 10
1337.260182715978
 20
278.8241034389858
 30
0.0
 40
40.0
 41
0.0
 71
     5
 72
     1
  1
1732
  7
CENTURY
1001
ACAD
1000
MTEXTBEGIN
1070
    73
1070
     1
1070
    44
1040
1.0
1070
    74
1070
     0
1000
MTEXTEND
  0
MTEXT
  5
58B
330
1F
100
AcDbEntity
  8
0
 62
   255
100
AcDbMText
 10
1337.26018271598
 20
337.7960354708358
 30
0.0
 40
30.0
 41
0.0
 71
     5
 72
     1
  1
1632
  7
ｽﾀｲﾙ2
1001
ACAD
1000
MTEXTBEGIN
1070
    73
1070
     1
1070
    44
1040
1.0
1070
    74
1070
     0
1000
MTEXTEND
  0
ARC
  5
58C
330
1F
100
AcDbEntity
  8
0
  6
CONTINUOUS
100
AcDbCircle
 10
970.3348438088857
 20
972.435713115076
 30
0.0
 40
13.29758727790373
100
AcDbArc
 50
224.9394111291674
 51
314.4307956862815
  0
ARC
  5
58D
330
1F
100
AcDbEntity
  8
0
  6
CONTINUOUS
100
AcDbCircle
 10
968.310489205877
 20
973.9160670617744
 30
0.0
 40
10.98638464699961
100
AcDbArc
 50
236.3962708967591
 51
321.8140803917553
  0
ARC
  5
58E
330
1F
100
AcDbEntity
  8
0
  6
CONTINUOUS
100
AcDbCircle
 10
976.4265424491629
 20
964.2712853855179
 30
0.0
 40
33.8737589960223
100
AcDbArc
 50
204.4466176865892
 51
271.6684235434292
  0
ARC
  5
58F
330
1F
100
AcDbEntity
  8
0
  6
CONTINUOUS
100
AcDbCircle
 10
976.4265424491629
 20
964.2712853855179
 30
0.0
 40
39.8737589960223
100
AcDbArc
 50
204.4466176865892
 51
271.6684235434292
  0
ARC
  5
590
330
1F
100
AcDbEntity
  8
0
  6
CONTINUOUS
100
AcDbCircle
 10
963.4810667095633
 20
971.7054333663178
 30
0.0
 40
19.7020449873939
100
AcDbArc
 50
52.72329730745384
 51
150.3990958276485
  0
ARC
  5
591
330
1F
100
AcDbEntity
  8
0
  6
CONTINUOUS
100
AcDbCircle
 10
963.9282506193419
 20
971.0993279200135
 30
0.0
 40
26.38058376875362
100
AcDbArc
 50
53.45029328511034
 51
150.4747204371001
  0
POLYLINE
  5
592
330
1F
100
AcDbEntity
  8
0
  6
CONTINUOUS
100
AcDb2dPolyline
 66
     1
 10
0.0
 20
0.0
 30
0.0
  0
VERTEX
  5
FFC
330
592
100
AcDbEntity
  8
0
  6
CONTINUOUS
100
AcDbVertex
100
AcDb2dVertex
 10
976.5130602926536
 20
831.6144112797365
 30
0.0
  0
VERTEX
  5
FFD
330
592
100
AcDbEntity
  8
0
  6
CONTINUOUS
100
AcDbVertex
100
AcDb2dVertex
 10
977.2649375095031
 20
833.1054520390194
 30
0.0
 42
-0.5016049534703276
  0
VERTEX
  5
FFE
330
592
100
AcDbEntity
  8
0
  6
CONTINUOUS
100
AcDbVertex
100
AcDb2dVertex
 10
981.910183765113
 20
841.8503377996181
 30
0.0
 42
-0.5731451722580876
  0
VERTEX
  5
FFF
330
592
100
AcDbEntity
  8
0
  6
CONTINUOUS
100
AcDbVertex
100
AcDb2dVertex
 10
995.846991123736
 20
826.0515848436281
 30
0.0
 42
-0.1994211041236551
  0
VERTEX
  5
1000
330
592
100
AcDbEntity
  8
0
  6
CONTINUOUS
100
AcDbVertex
100
AcDb2dVertex
 10
988.1117622849549
 20
816.3197237395744
 30
0.0
 42
-0.1912321573076029
  0
VERTEX
  5
1001
330
592
100
AcDbEntity
  8
0
  6
CONTINUOUS
100
AcDbVertex
100
AcDb2dVertex
 10
971.6740931186585
 20
814.7832491008967
 30
0.0
 42
-0.143630861908326
  0
VERTEX
  5
1002
330
592
100
AcDbEntity
  8
0
  6
CONTINUOUS
100
AcDbVertex
100
AcDb2dVertex
 10
955.5507458160725
 20
825.2261787883231
 30
0.0
 42
-0.1577079741972947
  0
VERTEX
  5
1003
330
592
100
AcDbEntity
  8
0
  6
CONTINUOUS
100
AcDbVertex
100
AcDb2dVertex
 10
943.0091970705658
 20
854.2145083753036
 30
0.0
 42
-0.1577079741972947
  0
SEQEND
  5
1004
330
592
100
AcDbEntity
  8
0
  6
CONTINUOUS
  0
POLYLINE
  5
593
330
1F
100
AcDbEntity
  8
0
  6
CONTINUOUS
100
AcDb2dPolyline
 66
     1
 10
0.0
 20
0.0
 30
0.0
  0
VERTEX
  5
1005
330
593
100
AcDbEntity
  8
0
  6
CONTINUOUS
100
AcDbVertex
100
AcDb2dVertex
 10
976.5130602926536
 20
831.6144112797365
 30
0.0
 42
-0.624487388012175
  0
VERTEX
  5
1006
330
593
100
AcDbEntity
  8
0
  6
CONTINUOUS
100
AcDbVertex
100
AcDb2dVertex
 10
980.7400588088173
 20
847.7351551883362
 30
0.0
 42
-0.5712699294635224
  0
VERTEX
  5
1007
330
593
100
AcDbEntity
  8
0
  6
CONTINUOUS
100
AcDbVertex
100
AcDb2dVertex
 10
1001.584168455673
 20
824.2923460344533
 30
0.0
 42
-0.1992749000703595
  0
VERTEX
  5
1008
330
593
100
AcDbEntity
  8
0
  6
CONTINUOUS
100
AcDbVertex
100
AcDb2dVertex
 10
990.925166158261
 20
811.0194548504129
 30
0.0
 42
-0.1922899288213652
  0
VERTEX
  5
1009
330
593
100
AcDbEntity
  8
0
  6
CONTINUOUS
100
AcDbVertex
100
AcDb2dVertex
 10
969.9749743488963
 20
809.0288454924927
 30
0.0
 42
-0.1435180749715141
  0
VERTEX
  5
100A
330
593
100
AcDbEntity
  8
0
  6
CONTINUOUS
100
AcDbVertex
100
AcDb2dVertex
 10
951.0241368907543
 20
821.2878205617712
 30
0.0
 42
-0.1601386182095308
  0
VERTEX
  5
100B
330
593
100
AcDbEntity
  8
0
  6
CONTINUOUS
100
AcDbVertex
100
AcDb2dVertex
 10
936.9846315986604
 20
854.2145083753036
 30
0.0
 42
-0.1601386182095308
  0
SEQEND
  5
100C
330
593
100
AcDbEntity
  8
0
  6
CONTINUOUS
  0
POLYLINE
  5
594
330
1F
100
AcDbEntity
  8
0
  6
CONTINUOUS
100
AcDb2dPolyline
 66
     1
 10
0.0
 20
0.0
 30
0.0
  0
VERTEX
  5
100D
330
594
100
AcDbEntity
  8
0
  6
CONTINUOUS
100
AcDbVertex
100
AcDb2dVertex
 10
997.0451398585053
 20
901.6409857702962
 30
0.0
  0
VERTEX
  5
100E
330
594
100
AcDbEntity
  8
0
  6
CONTINUOUS
100
AcDbVertex
100
AcDb2dVertex
 10
996.8728335809526
 20
899.9800124286135
 30
0.0
 42
0.5016049534703276
  0
VERTEX
  5
100F
330
594
100
AcDbEntity
  8
0
  6
CONTINUOUS
100
AcDbVertex
100
AcDb2dVertex
 10
996.060496852783
 20
890.1113018349635
 30
0.0
 42
0.5731451722580876
  0
VERTEX
  5
1010
330
594
100
AcDbEntity
  8
0
  6
CONTINUOUS
100
AcDbVertex
100
AcDb2dVertex
 10
1016.321852886238
 20
895.8830126732957
 30
0.0
 42
0.1994211041236551
  0
VERTEX
  5
1011
330
594
100
AcDbEntity
  8
0
  6
CONTINUOUS
100
AcDbVertex
100
AcDb2dVertex
 10
1015.066385457511
 20
908.2509828896364
 30
0.0
 42
0.1912321573076029
  0
VERTEX
  5
1012
330
594
100
AcDbEntity
  8
0
  6
CONTINUOUS
100
AcDbVertex
100
AcDb2dVertex
 10
1002.060905470837
 20
918.4203099200809
 30
0.0
 42
0.143630861908326
  0
VERTEX
  5
1013
330
594
100
AcDbEntity
  8
0
  6
CONTINUOUS
100
AcDbVertex
100
AcDb2dVertex
 10
982.8512674144391
 20
918.3371568170064
 30
0.0
 42
0.2016233873508618
  0
VERTEX
  5
1014
330
594
100
AcDbEntity
  8
0
  6
CONTINUOUS
100
AcDbVertex
100
AcDb2dVertex
 10
951.8570358758577
 20
893.4204516295409
 30
0.0
 42
0.0544492341104313
  0
VERTEX
  5
1015
330
594
100
AcDbEntity
  8
0
  6
CONTINUOUS
100
AcDbVertex
100
AcDb2dVertex
 10
945.631108743192
 20
878.6924587700815
 30
0.0
 42
0.056122523359716
  0
SEQEND
  5
1016
330
594
100
AcDbEntity
  8
0
  6
CONTINUOUS
  0
POLYLINE
  5
595
330
1F
100
AcDbEntity
  8
0
  6
CONTINUOUS
100
AcDb2dPolyline
 66
     1
 10
0.0
 20
0.0
 30
0.0
  0
VERTEX
  5
1017
330
595
100
AcDbEntity
  8
0
  6
CONTINUOUS
100
AcDbVertex
100
AcDb2dVertex
 10
997.0451398585053
 20
901.6409857702962
 30
0.0
 42
0.6244873880121949
  0
VERTEX
  5
1018
330
595
100
AcDbEntity
  8
0
  6
CONTINUOUS
100
AcDbVertex
100
AcDb2dVertex
 10
991.8979124199021
 20
885.7900567654207
 30
0.0
 42
0.5712699294635224
  0
VERTEX
  5
1019
330
595
100
AcDbEntity
  8
0
  6
CONTINUOUS
100
AcDbVertex
100
AcDb2dVertex
 10
1022.100649570462
 20
894.2657205512023
 30
0.0
 42
0.1992749000703595
  0
VERTEX
  5
101A
330
595
100
AcDbEntity
  8
0
  6
CONTINUOUS
100
AcDbVertex
100
AcDb2dVertex
 10
1020.29642648494
 20
911.19288066202
 30
0.0
 42
0.1922899288213652
  0
VERTEX
  5
101B
330
595
100
AcDbEntity
  8
0
  6
CONTINUOUS
100
AcDbVertex
100
AcDb2dVertex
 10
1003.738101008034
 20
924.1811415104136
 30
0.0
 42
0.1435180749715141
  0
VERTEX
  5
101C
330
595
100
AcDbEntity
  8
0
  6
CONTINUOUS
100
AcDbVertex
100
AcDb2dVertex
 10
981.1679989243737
 20
924.0962766346321
 30
0.0
 42
0.2013051193684176
  0
VERTEX
  5
101D
330
595
100
AcDbEntity
  8
0
  6
CONTINUOUS
100
AcDbVertex
100
AcDb2dVertex
 10
946.5980712634761
 20
896.3091657987257
 30
0.0
 42
0.0525451820212675
  0
VERTEX
  5
101E
330
595
100
AcDbEntity
  8
0
  6
CONTINUOUS
100
AcDbVertex
100
AcDb2dVertex
 10
940.0117420725225
 20
880.8566691020851
 30
0.0
  0
SEQEND
  5
101F
330
595
100
AcDbEntity
  8
0
  6
CONTINUOUS
  0
ARC
  5
596
330
1F
100
AcDbEntity
  8
0
100
AcDbCircle
 10
979.5037627503759
 20
590.4995135667446
 30
0.0
 40
57.11966942967778
100
AcDbArc
 50
247.7625217860481
 51
292.2374782139518
  0
LINE
  5
597
330
1F
100
AcDbEntity
  8
0
100
AcDbLine
 10
526.2601827159748
 20
507.6282204125852
 30
0.0
 11
1334.760182715978
 21
507.6282204125861
 31
0.0
  0
LINE
  5
598
330
1F
100
AcDbEntity
  8
0
100
AcDbLine
 10
556.2601827159676
 20
537.628220412586
 30
0.0
 11
1304.76018271598
 21
537.628220412586
 31
0.0
  0
LINE
  5
599
330
1F
100
AcDbEntity
  8
0
  6
CONTINUOUS
 62
     7
100
AcDbLine
 10
534.9601827159665
 20
735.6282204125861
 30
0.0
 11
534.9601827159665
 21
661.6282204125861
 31
0.0
  0
ARC
  5
59A
330
1F
100
AcDbEntity
  8
0
100
AcDbCircle
 10
611.5046238306375
 20
679.1713055066208
 30
0.0
 40
59.25027723911768
100
AcDbArc
 50
158.8106919803585
 51
201.1893080196414
  0
LINE
  5
59B
330
1F
100
AcDbEntity
  8
0
  6
CONTINUOUS
 62
     7
100
AcDbLine
 10
514.9601827159665
 20
735.6282204125861
 30
0.0
 11
514.9601827159665
 21
661.6282204125861
 31
0.0
  0
LINE
  5
59C
330
1F
100
AcDbEntity
  8
0
  6
CONTINUOUS
100
AcDbLine
 10
924.510182715973
 20
537.628220412586
 30
0.0
 11
924.5101827159695
 21
854.2145083753036
 31
0.0
  0
LINE
  5
59D
330
1F
100
AcDbEntity
  8
0
  6
CONTINUOUS
100
AcDbLine
 10
936.5101827159731
 20
537.628220412586
 30
0.0
 11
936.5101827159694
 21
854.2145083753036
 31
0.0
  0
ARC
  5
59E
330
1F
100
AcDbEntity
  8
0
100
AcDbCircle
 10
931.9743803415192
 20
577.2098199081552
 30
0.0
 40
47.3092865871033
100
AcDbArc
 50
236.7886702846587
 51
303.2113297153411
  0
ARC
  5
59F
330
1F
100
AcDbEntity
  8
0
100
AcDbCircle
 10
676.4346581977831
 20
639.6059799055652
 30
0.0
 40
106.6116003211486
100
AcDbArc
 50
253.0452386241606
 51
286.9547613758393
  0
LINE
  5
5A0
330
1F
100
AcDbEntity
  8
0
100
AcDbLine
 10
718.1390119066316
 20
512.3571034201956
 30
0.0
 11
718.9181307966544
 21
535.3570737190453
 31
0.0
  0
ARC
  5
5A1
330
1F
100
AcDbEntity
  8
0
100
AcDbCircle
 10
806.9108863695898
 20
639.6059799055652
 30
0.0
 40
106.6116003211486
100
AcDbArc
 50
253.0452386241606
 51
286.9547613758393
  0
LINE
  5
5A2
330
1F
100
AcDbEntity
  8
0
100
AcDbLine
 10
526.2601827159748
 20
582.6282204125861
 30
0.0
 11
526.2601827159748
 21
507.6282204125852
 31
0.0
  0
LINE
  5
5A3
330
1F
100
AcDbEntity
  8
0
100
AcDbLine
 10
526.2601827159748
 20
582.6282204125861
 30
0.0
 11
526.2601827159748
 21
507.6282204125852
 31
0.0
  0
LINE
  5
5A4
330
1F
100
AcDbEntity
  8
0
100
AcDbLine
 10
521.2601827159621
 20
582.6282204125852
 30
0.0
 11
521.2601827159621
 21
427.6282204125847
 31
0.0
  0
ARC
  5
5A5
330
1F
100
AcDbEntity
  8
0
100
AcDbCircle
 10
594.4170334130383
 20
590.4995135667446
 30
0.0
 40
57.11966942967778
100
AcDbArc
 50
247.7625217860481
 51
292.2374782139518
  0
LINE
  5
5A6
330
1F
100
AcDbEntity
  8
0
100
AcDbLine
 10
471.2601827159694
 20
427.6282204125847
 30
0.0
 11
521.2601827159621
 21
427.6282204125847
 31
0.0
  0
ARC
  5
5A7
330
1F
100
AcDbEntity
  8
0
100
AcDbCircle
 10
630.6893569906267
 20
484.3911426665687
 30
0.0
 40
27.47268131795497
100
AcDbArc
 50
57.76042437566056
 51
122.2395756243394
  0
LINE
  5
5A8
330
1F
100
AcDbEntity
  8
0
100
AcDbLine
 10
675.9400938933366
 20
510.7593664735465
 30
0.0
 11
679.5525357301019
 21
531.2442526657502
 31
0.0
  0
LINE
  5
5A9
330
1F
100
AcDbEntity
  8
0
100
AcDbLine
 10
599.2153492035074
 20
532.8627129334269
 30
0.0
 11
600.6306201493141
 21
513.5070727747439
 31
0.0
  0
LINE
  5
5AA
330
1F
100
AcDbEntity
  8
0
100
AcDbLine
 10
627.3408464416977
 20
532.6325207718288
 30
0.0
 11
627.3408464416977
 21
514.9014451235995
 31
0.0
  0
LINE
  5
5AB
330
1F
100
AcDbEntity
  8
0
100
AcDbLine
 10
649.2652087460162
 20
528.1480018779981
 30
0.0
 11
649.7369695428394
 21
510.2086238050138
 31
0.0
  0
LINE
  5
5AC
330
1F
100
AcDbEntity
  8
0
100
AcDbLine
 10
674.7359542441925
 20
531.2442526657502
 30
0.0
 11
674.1338844196222
 21
508.9518690823675
 31
0.0
  0
LINE
  5
5AD
330
1F
100
AcDbEntity
  8
0
100
AcDbLine
 10
648.3216985970328
 20
509.2644490812159
 30
0.0
 11
646.906427651226
 21
526.2596524303986
 31
0.0
  0
LINE
  5
5AE
330
1F
100
AcDbEntity
  8
0
100
AcDbLine
 10
565.5743100673723
 20
526.455182601952
 30
0.0
 11
565.9089637016847
 21
509.3762111568026
 31
0.0
  0
LINE
  5
5AF
330
1F
100
AcDbEntity
  8
0
100
AcDbLine
 10
569.25541993211
 20
509.3762111568026
 30
0.0
 11
566.9129017152779
 21
527.1249580046675
 31
0.0
  0
LINE
  5
5B0
330
1F
100
AcDbEntity
  8
0
100
AcDbLine
 10
805.2121824159993
 20
531.2442526657502
 30
0.0
 11
804.610112591429
 21
508.9518690823675
 31
0.0
  0
LINE
  5
5B1
330
1F
100
AcDbEntity
  8
0
100
AcDbLine
 10
806.4163220651433
 20
510.7593664735465
 30
0.0
 11
810.0287639019086
 21
531.2442526657502
 31
0.0
  0
ARC
  5
5B2
330
1F
100
AcDbEntity
  8
0
100
AcDbCircle
 10
719.2915990337776
 20
479.2125106048748
 30
0.0
 40
30.75581818224811
100
AcDbArc
 50
67.50505788344454
 51
112.4949421165554
  0
ARC
  5
5B3
330
1F
100
AcDbEntity
  8
0
100
AcDbCircle
 10
761.1655851624334
 20
484.3911426665687
 30
0.0
 40
27.47268131795497
100
AcDbArc
 50
57.76042437566056
 51
122.2395756243394
  0
LINE
  5
5B4
330
1F
100
AcDbEntity
  8
0
100
AcDbLine
 10
720.8659108546969
 20
533.0180989605902
 30
0.0
 11
720.8659108546969
 21
511.5774516474663
 31
0.0
  0
LINE
  5
5B5
330
1F
100
AcDbEntity
  8
0
100
AcDbLine
 10
779.741436917823
 20
528.1480018779999
 30
0.0
 11
780.2131977146461
 21
510.2086238050157
 31
0.0
  0
LINE
  5
5B6
330
1F
100
AcDbEntity
  8
0
100
AcDbLine
 10
757.8170746135044
 20
532.6325207718306
 30
0.0
 11
757.8170746135044
 21
514.9014451236013
 31
0.0
  0
LINE
  5
5B7
330
1F
100
AcDbEntity
  8
0
100
AcDbLine
 10
778.7979267688394
 20
509.2644490812177
 30
0.0
 11
777.3826558230328
 21
526.2596524304004
 31
0.0
  0
ARC
  5
5B8
330
1F
100
AcDbEntity
  8
0
100
AcDbCircle
 10
887.556426392687
 20
459.9139580512961
 30
0.0
 40
51.17711403260225
100
AcDbArc
 50
68.80192224697278
 51
111.1980777530272
  0
LINE
  5
5B9
330
1F
100
AcDbEntity
  8
0
100
AcDbLine
 10
861.5724789427993
 20
533.0810270939506
 30
0.0
 11
860.585501932114
 21
514.6445225995154
 31
0.0
  0
LINE
  5
5BA
330
1F
100
AcDbEntity
  8
0
100
AcDbLine
 10
858.6115479107435
 20
512.669197412451
 30
0.0
 11
858.6115479107435
 21
533.0810270939506
 31
0.0
  0
LINE
  5
5BB
330
1F
100
AcDbEntity
  8
0
100
AcDbLine
 10
887.5999962564318
 20
533.4099174739782
 30
0.0
 11
887.2710077344279
 21
512.6688669279716
 31
0.0
  0
LINE
  5
5BC
330
1F
100
AcDbEntity
  8
0
100
AcDbLine
 10
886.2840307237426
 20
513.3273086569894
 30
0.0
 11
885.2970537130538
 21
532.7514757449567
 31
0.0
  0
LINE
  5
5BD
330
1F
100
AcDbEntity
  8
0
100
AcDbLine
 10
954.3421492694475
 20
509.3762111568026
 30
0.0
 11
951.9996310526154
 21
527.1249580046675
 31
0.0
  0
LINE
  5
5BE
330
1F
100
AcDbEntity
  8
0
100
AcDbLine
 10
950.6610394047099
 20
526.455182601952
 30
0.0
 11
950.9956930390224
 21
509.3762111568026
 31
0.0
  0
ARC
  5
5BF
330
1F
100
AcDbEntity
  8
0
100
AcDbCircle
 10
658.2379422089513
 20
603.1310837759462
 30
0.0
 40
106.6116003211486
100
AcDbArc
 50
163.0452386242167
 51
196.9547613757832
  0
LINE
  5
5C0
330
1F
100
AcDbEntity
  8
0
  6
CONTINUOUS
 62
     7
100
AcDbLine
 10
534.9601827159665
 20
658.628220412586
 30
0.0
 11
534.9601827159665
 21
584.628220412586
 31
0.0
  0
LINE
  5
5C1
330
1F
100
AcDbEntity
  8
0
  6
CONTINUOUS
 62
     7
100
AcDbLine
 10
514.9601827159665
 20
584.628220412586
 30
0.0
 11
514.9601827159665
 21
658.628220412586
 31
0.0
  0
LINE
  5
5C2
330
1F
100
AcDbEntity
  8
0
100
AcDbLine
 10
534.9601827159665
 20
603.6185684203416
 30
0.0
 11
549.8762149691363
 21
606.2489613082667
 31
0.0
  0
LINE
  5
5C3
330
1F
100
AcDbEntity
  8
0
100
AcDbLine
 10
549.8762149691363
 20
601.4323798223573
 30
0.0
 11
534.9601827159665
 21
601.0295295444426
 31
0.0
  0
LINE
  5
5C4
330
1F
100
AcDbEntity
  8
0
100
AcDbLine
 10
527.896411384602
 20
575.0181241751976
 30
0.0
 11
544.8916147337847
 21
573.6028532293909
 31
0.0
  0
LINE
  5
5C5
330
1F
100
AcDbEntity
  8
0
100
AcDbLine
 10
546.7799641813842
 20
575.9616343241792
 30
0.0
 11
528.8405861083999
 21
576.4333951210042
 31
0.0
  0
LINE
  5
5C6
330
1F
100
AcDbEntity
  8
0
100
AcDbLine
 10
551.2644830752149
 20
554.0372720198607
 30
0.0
 11
533.5334074269856
 21
554.0372720198607
 31
0.0
  0
LINE
  5
5C7
330
1F
100
AcDbEntity
  8
0
  6
CONTINUOUS
 62
     7
100
AcDbLine
 10
534.9601827159683
 20
584.628220412586
 30
0.0
 11
514.9601827159665
 21
584.628220412586
 31
0.0
  0
ARC
  5
5C8
330
1F
100
AcDbEntity
  8
0
  6
CONTINUOUS
 62
     7
100
AcDbCircle
 10
515.9601827159665
 20
583.128220412586
 30
0.0
 40
0.5
100
AcDbArc
 50
180.0
 51
270.0
  0
ARC
  5
5C9
330
1F
100
AcDbEntity
  8
0
  6
CONTINUOUS
 62
     7
100
AcDbCircle
 10
515.9601827159665
 20
584.128220412586
 30
0.0
 40
0.5
100
AcDbArc
 50
90.0
 51
180.0
  0
LINE
  5
5CA
330
1F
100
AcDbEntity
  8
0
  6
CONTINUOUS
 62
     7
100
AcDbLine
 10
533.9601827159665
 20
582.6282204125861
 30
0.0
 11
515.9601827159665
 21
582.6282204125861
 31
0.0
  0
LINE
  5
5CB
330
1F
100
AcDbEntity
  8
0
  6
CONTINUOUS
 62
     7
100
AcDbLine
 10
532.9601827159665
 20
584.628220412586
 30
0.0
 11
516.9601827159665
 21
584.628220412586
 31
0.0
  0
ARC
  5
5CC
330
1F
100
AcDbEntity
  8
0
  6
CONTINUOUS
 62
     7
100
AcDbCircle
 10
533.9601827159665
 20
583.128220412586
 30
0.0
 40
0.5
100
AcDbArc
 50
270.0
 51
0.0
  0
LINE
  5
5CD
330
1F
100
AcDbEntity
  8
0
  6
CONTINUOUS
 62
     7
100
AcDbLine
 10
534.4601827159665
 20
584.128220412586
 30
0.0
 11
534.4601827159665
 21
583.128220412586
 31
0.0
  0
ARC
  5
5CE
330
1F
100
AcDbEntity
  8
0
  6
CONTINUOUS
 62
     7
100
AcDbCircle
 10
533.9601827159665
 20
584.128220412586
 30
0.0
 40
0.5
100
AcDbArc
 50
0.0
 51
90.0
  0
LINE
  5
5CF
330
1F
100
AcDbEntity
  8
0
  6
CONTINUOUS
 62
     7
100
AcDbLine
 10
515.4601827159665
 20
583.128220412586
 30
0.0
 11
515.4601827159665
 21
584.128220412586
 31
0.0
  0
ARC
  5
5D0
330
1F
100
AcDbEntity
  8
0
100
AcDbCircle
 10
503.0231049699548
 20
557.3857825687888
 30
0.0
 40
27.47268131795497
100
AcDbArc
 50
327.7604243756004
 51
32.23957562439952
  0
ARC
  5
5D1
330
1F
100
AcDbEntity
  8
0
100
AcDbCircle
 10
595.185418563459
 20
557.3857825687888
 30
0.0
 40
41.59279291423044
100
AcDbArc
 50
159.3683311470978
 51
200.6316688529021
  0
ARC
  5
5D2
330
1F
100
AcDbEntity
  8
0
100
AcDbCircle
 10
630.6893569906267
 20
576.5534562600729
 30
0.0
 40
41.59279291423044
100
AcDbArc
 50
249.368331147106
 51
290.6316688528939
  0
LINE
  5
5D3
330
1F
100
AcDbEntity
  8
0
100
AcDbLine
 10
534.9601827159665
 20
644.9699581916953
 30
0.0
 11
553.9890360224315
 21
645.6145563748174
 31
0.0
  0
LINE
  5
5D4
330
1F
100
AcDbEntity
  8
0
100
AcDbLine
 10
551.6500612639763
 20
647.5623364328618
 30
0.0
 11
534.9601827159665
 21
647.5623364328618
 31
0.0
  0
LINE
  5
5D5
330
1F
100
AcDbEntity
  8
0
  6
CONTINUOUS
 62
     7
100
AcDbLine
 10
534.9601827159665
 20
661.6282204125861
 30
0.0
 11
514.9601827159665
 21
661.6282204125861
 31
0.0
  0
LINE
  5
5D6
330
1F
100
AcDbEntity
  8
0
  6
CONTINUOUS
 62
     7
100
AcDbLine
 10
514.9601827159665
 20
658.628220412586
 30
0.0
 11
534.9601827159647
 21
658.6282204125869
 31
0.0
  0
LINE
  5
5D7
330
1F
100
AcDbEntity
  8
0
  6
CONTINUOUS
 62
     7
100
AcDbLine
 10
534.4601827159665
 20
661.6282204125861
 30
0.0
 11
534.4601827159665
 21
658.628220412586
 31
0.0
  0
LINE
  5
5D8
330
1F
100
AcDbEntity
  8
0
  6
CONTINUOUS
 62
     7
100
AcDbLine
 10
515.4601827159665
 20
661.6282204125861
 30
0.0
 11
515.4601827159665
 21
658.628220412586
 31
0.0
  0
LINE
  5
5D9
330
1F
100
AcDbEntity
  8
0
100
AcDbLine
 10
550.7730915315339
 20
675.6263643413473
 30
0.0
 11
534.9601827159665
 21
679.7847279973208
 31
0.0
  0
LINE
  5
5DA
330
1F
100
AcDbEntity
  8
0
100
AcDbLine
 10
534.9601827159683
 20
681.1552953672323
 30
0.0
 11
549.9875687991886
 21
680.3362013777765
 31
0.0
  0
ARC
  5
5DB
330
1F
100
AcDbEntity
  8
0
100
AcDbCircle
 10
761.1655851624334
 20
576.5534562600729
 30
0.0
 40
41.59279291423044
100
AcDbArc
 50
249.368331147106
 51
290.6316688528939
  0
ARC
  5
5DC
330
1F
100
AcDbEntity
  8
0
100
AcDbCircle
 10
887.556426392687
 20
609.531812610559
 30
0.0
 40
74.24670187285427
100
AcDbArc
 50
255.5674138149335
 51
284.4325861850664
  0
POLYLINE
  5
5DD
330
1F
100
AcDbEntity
  8
0
  6
CONTINUOUS
100
AcDb2dPolyline
 66
     1
 10
0.0
 20
0.0
 30
0.0
  0
VERTEX
  5
1020
330
5DD
100
AcDbEntity
  8
0
  6
CONTINUOUS
100
AcDbVertex
100
AcDb2dVertex
 10
884.5073051392853
 20
831.6144112797365
 30
0.0
  0
VERTEX
  5
1021
330
5DD
100
AcDbEntity
  8
0
  6
CONTINUOUS
100
AcDbVertex
100
AcDb2dVertex
 10
883.7554279224358
 20
833.1054520390194
 30
0.0
 42
0.5016049534703276
  0
VERTEX
  5
1022
330
5DD
100
AcDbEntity
  8
0
  6
CONTINUOUS
100
AcDbVertex
100
AcDb2dVertex
 10
879.1101816668257
 20
841.8503377996181
 30
0.0
 42
0.5731451722580876
  0
VERTEX
  5
1023
330
5DD
100
AcDbEntity
  8
0
  6
CONTINUOUS
100
AcDbVertex
100
AcDb2dVertex
 10
865.1733743082029
 20
826.0515848436281
 30
0.0
 42
0.1994211041236551
  0
VERTEX
  5
1024
330
5DD
100
AcDbEntity
  8
0
  6
CONTINUOUS
100
AcDbVertex
100
AcDb2dVertex
 10
872.908603146984
 20
816.3197237395744
 30
0.0
 42
0.1912321573076029
  0
VERTEX
  5
1025
330
5DD
100
AcDbEntity
  8
0
  6
CONTINUOUS
100
AcDbVertex
100
AcDb2dVertex
 10
889.3462723132804
 20
814.7832491008967
 30
0.0
 42
0.143630861908326
  0
VERTEX
  5
1026
330
5DD
100
AcDbEntity
  8
0
  6
CONTINUOUS
100
AcDbVertex
100
AcDb2dVertex
 10
905.4696196158664
 20
825.2261787883231
 30
0.0
 42
0.1577079741972947
  0
VERTEX
  5
1027
330
5DD
100
AcDbEntity
  8
0
  6
CONTINUOUS
100
AcDbVertex
100
AcDb2dVertex
 10
918.0111683613747
 20
854.2145083753036
 30
0.0
 42
0.1577079741972947
  0
SEQEND
  5
1028
330
5DD
100
AcDbEntity
  8
0
  6
CONTINUOUS
  0
POLYLINE
  5
5DE
330
1F
100
AcDbEntity
  8
0
  6
CONTINUOUS
100
AcDb2dPolyline
 66
     1
 10
0.0
 20
0.0
 30
0.0
  0
VERTEX
  5
1029
330
5DE
100
AcDbEntity
  8
0
  6
CONTINUOUS
100
AcDbVertex
100
AcDb2dVertex
 10
884.5073051392853
 20
831.6144112797365
 30
0.0
 42
0.624487388012175
  0
VERTEX
  5
102A
330
5DE
100
AcDbEntity
  8
0
  6
CONTINUOUS
100
AcDbVertex
100
AcDb2dVertex
 10
880.2803066231215
 20
847.7351551883362
 30
0.0
 42
0.5712699294635224
  0
VERTEX
  5
102B
330
5DE
100
AcDbEntity
  8
0
  6
CONTINUOUS
100
AcDbVertex
100
AcDb2dVertex
 10
859.4361969762656
 20
824.2923460344533
 30
0.0
 42
0.1992749000703595
  0
VERTEX
  5
102C
330
5DE
100
AcDbEntity
  8
0
  6
CONTINUOUS
100
AcDbVertex
100
AcDb2dVertex
 10
870.0951992736779
 20
811.0194548504129
 30
0.0
 42
0.1922899288213652
  0
VERTEX
  5
102D
330
5DE
100
AcDbEntity
  8
0
  6
CONTINUOUS
100
AcDbVertex
100
AcDb2dVertex
 10
891.0453910830444
 20
809.0288454924927
 30
0.0
 42
0.1435180749715141
  0
VERTEX
  5
102E
330
5DE
100
AcDbEntity
  8
0
  6
CONTINUOUS
100
AcDbVertex
100
AcDb2dVertex
 10
909.9962285411846
 20
821.2878205617712
 30
0.0
 42
0.1601386182095308
  0
VERTEX
  5
102F
330
5DE
100
AcDbEntity
  8
0
  6
CONTINUOUS
100
AcDbVertex
100
AcDb2dVertex
 10
924.0357338332785
 20
854.2145083753036
 30
0.0
 42
0.1601386182095308
  0
SEQEND
  5
1030
330
5DE
100
AcDbEntity
  8
0
  6
CONTINUOUS
  0
LINE
  5
5DF
330
1F
100
AcDbEntity
  8
0
100
AcDbLine
 10
534.9601827159665
 20
706.8167432828401
 30
0.0
 11
552.8160688360156
 21
705.5718618821989
 31
0.0
  0
LINE
  5
5E0
330
1F
100
AcDbEntity
  8
0
100
AcDbLine
 10
552.322266699645
 20
707.0522186738505
 30
0.0
 11
534.9601827159665
 21
709.3655400401072
 31
0.0
  0
LINE
  5
5E1
330
1F
100
AcDbEntity
  8
0
100
AcDbLine
 10
530.9890657235817
 20
740.0585139320006
 30
0.0
 11
553.9890360224315
 21
740.8376328220216
 31
0.0
  0
LINE
  5
5E2
330
1F
100
AcDbEntity
  8
0
100
AcDbLine
 10
551.6500612639763
 20
742.785412880066
 30
0.0
 11
530.2094139508524
 21
742.785412880066
 31
0.0
  0
ARC
  5
5E3
330
1F
100
AcDbEntity
  8
0
  6
CONTINUOUS
 62
     7
100
AcDbCircle
 10
515.9601827159665
 20
737.128220412586
 30
0.0
 40
0.5
100
AcDbArc
 50
90.0
 51
180.0
  0
ARC
  5
5E4
330
1F
100
AcDbEntity
  8
0
  6
CONTINUOUS
 62
     7
100
AcDbCircle
 10
515.9601827159665
 20
736.1282204125861
 30
0.0
 40
0.5
100
AcDbArc
 50
180.0
 51
270.0
  0
LINE
  5
5E5
330
1F
100
AcDbEntity
  8
0
  6
CONTINUOUS
 62
     7
100
AcDbLine
 10
534.9601827159683
 20
735.6282204125861
 30
0.0
 11
514.9601827159665
 21
735.6282204125861
 31
0.0
  0
ARC
  5
5E6
330
1F
100
AcDbEntity
  8
0
100
AcDbCircle
 10
497.8444729082609
 20
741.211101059144
 30
0.0
 40
30.75581818224811
100
AcDbArc
 50
353.3101726252275
 51
22.49494211655546
  0
LINE
  5
5E7
330
1F
100
AcDbEntity
  8
0
  6
CONTINUOUS
 62
     7
100
AcDbLine
 10
534.4601827159665
 20
737.128220412586
 30
0.0
 11
534.4601827159665
 21
736.1282204125861
 31
0.0
  0
ARC
  5
5E8
330
1F
100
AcDbEntity
  8
0
  6
CONTINUOUS
 62
     7
100
AcDbCircle
 10
533.9601827159665
 20
737.128220412586
 30
0.0
 40
0.5
100
AcDbArc
 50
0.0
 51
90.0
  0
ARC
  5
5E9
330
1F
100
AcDbEntity
  8
0
  6
CONTINUOUS
 62
     7
100
AcDbCircle
 10
533.9601827159665
 20
736.1282204125861
 30
0.0
 40
0.5
100
AcDbArc
 50
270.0
 51
0.0
  0
LINE
  5
5EA
330
1F
100
AcDbEntity
  8
0
  6
CONTINUOUS
 62
     7
100
AcDbLine
 10
533.9601827159665
 20
737.628220412586
 30
0.0
 11
515.9601827159665
 21
737.628220412586
 31
0.0
  0
LINE
  5
5EB
330
1F
100
AcDbEntity
  8
0
  6
CONTINUOUS
 62
     7
100
AcDbLine
 10
515.4601827159665
 20
737.128220412586
 30
0.0
 11
515.4601827159665
 21
736.1282204125861
 31
0.0
  0
ARC
  5
5EC
330
1F
100
AcDbEntity
  8
0
100
AcDbCircle
 10
573.236620797307
 20
708.7355524338451
 30
0.0
 40
18.83062952425546
100
AcDbArc
 50
154.3603398614806
 51
205.6396601385193
  0
ARC
  5
5ED
330
1F
100
AcDbEntity
  8
0
100
AcDbCircle
 10
658.2379422089513
 20
815.6606204328724
 30
0.0
 40
106.6116003211486
100
AcDbArc
 50
163.0452386242167
 51
196.9547613757832
  0
LINE
  5
5EE
330
1F
100
AcDbEntity
  8
0
100
AcDbLine
 10
546.7799641813842
 20
788.4911709811055
 30
0.0
 11
528.8405861083999
 21
788.9629317779305
 31
0.0
  0
LINE
  5
5EF
330
1F
100
AcDbEntity
  8
0
100
AcDbLine
 10
529.3913287769326
 20
815.1660561284257
 30
0.0
 11
549.8762149691363
 21
818.7784979651929
 31
0.0
  0
LINE
  5
5F0
330
1F
100
AcDbEntity
  8
0
100
AcDbLine
 10
549.8762149691363
 20
813.9619164792835
 30
0.0
 11
527.5838313857536
 21
813.3598466547134
 31
0.0
  0
ARC
  5
5F1
330
1F
100
AcDbEntity
  8
0
100
AcDbCircle
 10
595.8417822115413
 20
940.7241144048017
 30
0.0
 40
47.3092865871033
100
AcDbArc
 50
146.7886702846587
 51
213.2113297153412
  0
LINE
  5
5F2
330
1F
100
AcDbEntity
  8
0
100
AcDbLine
 10
531.3011597158372
 20
867.3612819740261
 30
0.0
 11
551.7129893973367
 21
867.3612819740261
 31
0.0
  0
LINE
  5
5F3
330
1F
100
AcDbEntity
  8
0
100
AcDbLine
 10
551.7129893973367
 20
870.3222130060837
 30
0.0
 11
533.2764849029015
 21
869.3352359953966
 31
0.0
  0
LINE
  5
5F4
330
1F
100
AcDbEntity
  8
0
100
AcDbLine
 10
531.9592709603755
 20
895.0337647870252
 30
0.0
 11
551.3834380483428
 21
894.0467877763381
 31
0.0
  0
LINE
  5
5F5
330
1F
100
AcDbEntity
  8
0
100
AcDbLine
 10
552.0418797773642
 20
896.349730319716
 30
0.0
 11
531.3008292313577
 21
896.0207417977104
 31
0.0
  0
ARC
  5
5F6
330
1F
100
AcDbEntity
  8
0
100
AcDbCircle
 10
478.5459203546822
 20
896.3061604559694
 30
0.0
 40
51.17711403260225
100
AcDbArc
 50
338.8019222469722
 51
21.1980777530278
  0
ARC
  5
5F7
330
1F
100
AcDbEntity
  8
0
100
AcDbCircle
 10
628.1637749139451
 20
896.3061604559694
 30
0.0
 40
74.24670187285427
100
AcDbArc
 50
165.5674138149892
 51
194.4325861850107
  0
LINE
  5
5F8
330
1F
100
AcDbEntity
  8
0
100
AcDbLine
 10
545.0871449053381
 20
959.4107734679925
 30
0.0
 11
528.0081734601887
 21
959.745427102305
 31
0.0
  0
LINE
  5
5F9
330
1F
100
AcDbEntity
  8
0
100
AcDbLine
 10
528.0081734601887
 20
963.0918833327301
 30
0.0
 11
545.7569203080536
 21
960.7493651158998
 31
0.0
  0
LINE
  5
5FA
330
1F
100
AcDbEntity
  8
0
100
AcDbLine
 10
551.494675236813
 20
993.0518126041276
 30
0.0
 11
532.13903507813
 21
994.4670835499342
 31
0.0
  0
ARC
  5
5FB
330
1F
100
AcDbEntity
  8
0
100
AcDbCircle
 10
609.1314758701307
 20
988.2534968136594
 30
0.0
 40
57.11966942967778
100
AcDbArc
 50
157.7625217859815
 51
202.2374782140184
  0
ARC
  5
5FC
330
1F
100
AcDbEntity
  8
0
  6
CONTINUOUS
100
AcDbCircle
 10
884.5938229827758
 20
964.2712853855179
 30
0.0
 40
39.8737589960223
100
AcDbArc
 50
268.3315764565707
 51
335.5533823134107
  0
ARC
  5
5FD
330
1F
100
AcDbEntity
  8
0
  6
CONTINUOUS
100
AcDbCircle
 10
884.5938229827758
 20
964.2712853855179
 30
0.0
 40
33.8737589960223
100
AcDbArc
 50
268.3315764565707
 51
335.5533823134107
  0
ARC
  5
5FE
330
1F
100
AcDbEntity
  8
0
  6
CONTINUOUS
100
AcDbCircle
 10
883.2348199793148
 20
968.7705605421884
 30
0.0
 40
44.35657218847958
100
AcDbArc
 50
151.8719099881548
 51
270.2558416202819
  0
ARC
  5
5FF
330
1F
100
AcDbEntity
  8
0
  6
CONTINUOUS
100
AcDbCircle
 10
883.2348199793148
 20
968.7705605421884
 30
0.0
 40
38.35657218847958
100
AcDbArc
 50
151.8450300399696
 51
270.3122905779446
  0
LINE
  5
600
330
1F
100
AcDbEntity
  8
0
  6
CONTINUOUS
100
AcDbLine
 10
924.5101827159695
 20
868.2145083753036
 30
0.0
 11
924.5101827159695
 21
957.9587067175999
 31
0.0
  0
LINE
  5
601
330
1F
100
AcDbEntity
  8
0
  6
CONTINUOUS
100
AcDbLine
 10
936.5101827159694
 20
868.2145083753036
 30
0.0
 11
936.5101827159694
 21
957.9587067175999
 31
0.0
  0
POLYLINE
  5
602
330
1F
100
AcDbEntity
  8
0
  6
CONTINUOUS
100
AcDb2dPolyline
 66
     1
 10
0.0
 20
0.0
 30
0.0
  0
VERTEX
  5
1031
330
602
100
AcDbEntity
  8
0
  6
CONTINUOUS
100
AcDbVertex
100
AcDb2dVertex
 10
917.5843534012427
 20
868.2145083753036
 30
0.0
 42
0.0363948171192986
  0
VERTEX
  5
1032
330
602
100
AcDbEntity
  8
0
  6
CONTINUOUS
100
AcDbVertex
100
AcDb2dVertex
 10
915.3892566887487
 20
878.6924587700815
 30
0.0
  0
SEQEND
  5
1033
330
602
100
AcDbEntity
  8
0
  6
CONTINUOUS
  0
POLYLINE
  5
603
330
1F
100
AcDbEntity
  8
0
  6
CONTINUOUS
100
AcDb2dPolyline
 66
     1
 10
0.0
 20
0.0
 30
0.0
  0
VERTEX
  5
1034
330
603
100
AcDbEntity
  8
0
  6
CONTINUOUS
100
AcDbVertex
100
AcDb2dVertex
 10
923.6343019192089
 20
868.2145083753036
 30
0.0
 42
0.0406020746902253
  0
VERTEX
  5
1035
330
603
100
AcDbEntity
  8
0
  6
CONTINUOUS
100
AcDbVertex
100
AcDb2dVertex
 10
921.0086233594163
 20
880.8566691020851
 30
0.0
  0
SEQEND
  5
1036
330
603
100
AcDbEntity
  8
0
  6
CONTINUOUS
  0
ARC
  5
604
330
1F
100
AcDbEntity
  8
0
100
AcDbCircle
 10
913.8281303903283
 20
861.2145083753036
 30
0.0
 40
3.000000000000056
100
AcDbArc
 50
90.0
 51
270.0
  0
LINE
  5
605
330
1F
100
AcDbEntity
  8
0
100
AcDbLine
 10
913.8281303903283
 20
858.2145083753035
 30
0.0
 11
913.8281303903283
 21
854.2145083753036
 31
0.0
  0
LINE
  5
606
330
1F
100
AcDbEntity
  8
0
100
AcDbLine
 10
913.8281303903283
 20
868.2145083753036
 30
0.0
 11
913.8281303903283
 21
864.2145083753035
 31
0.0
  0
POLYLINE
  5
607
330
1F
100
AcDbEntity
  8
0
  6
CONTINUOUS
100
AcDb2dPolyline
 66
     1
 10
0.0
 20
0.0
 30
0.0
  0
VERTEX
  5
1037
330
607
100
AcDbEntity
  8
0
  6
CONTINUOUS
100
AcDbVertex
100
AcDb2dVertex
 10
943.4360120306962
 20
868.2145083753036
 30
0.0
 42
-0.0363948171192986
  0
VERTEX
  5
1038
330
607
100
AcDbEntity
  8
0
  6
CONTINUOUS
100
AcDbVertex
100
AcDb2dVertex
 10
945.631108743192
 20
878.6924587700815
 30
0.0
  0
SEQEND
  5
1039
330
607
100
AcDbEntity
  8
0
  6
CONTINUOUS
  0
POLYLINE
  5
608
330
1F
100
AcDbEntity
  8
0
  6
CONTINUOUS
100
AcDb2dPolyline
 66
     1
 10
0.0
 20
0.0
 30
0.0
  0
VERTEX
  5
103A
330
608
100
AcDbEntity
  8
0
  6
CONTINUOUS
100
AcDbVertex
100
AcDb2dVertex
 10
937.38606351273
 20
868.2145083753036
 30
0.0
 42
-0.0406020746902253
  0
VERTEX
  5
103B
330
608
100
AcDbEntity
  8
0
  6
CONTINUOUS
100
AcDbVertex
100
AcDb2dVertex
 10
940.0117420725225
 20
880.8566691020851
 30
0.0
  0
SEQEND
  5
103C
330
608
100
AcDbEntity
  8
0
  6
CONTINUOUS
  0
LINE
  5
609
330
1F
100
AcDbEntity
  8
0
100
AcDbLine
 10
947.1922350416106
 20
858.2145083753035
 30
0.0
 11
947.1922350416106
 21
854.2145083753036
 31
0.0
  0
ARC
  5
60A
330
1F
100
AcDbEntity
  8
0
100
AcDbCircle
 10
947.1922350416106
 20
861.2145083753036
 30
0.0
 40
3.000000000000056
100
AcDbArc
 50
270.0
 51
90.0
  0
LINE
  5
60B
330
1F
100
AcDbEntity
  8
0
100
AcDbLine
 10
947.1922350416106
 20
868.2145083753036
 30
0.0
 11
947.1922350416106
 21
864.2145083753035
 31
0.0
  0
LINE
  5
60C
330
1F
100
AcDbEntity
  8
0
100
AcDbLine
 10
947.1922350416106
 20
854.2145083753036
 30
0.0
 11
913.8281303903283
 21
854.2145083753036
 31
0.0
  0
LINE
  5
60D
330
1F
100
AcDbEntity
  8
0
100
AcDbLine
 10
947.1922350416106
 20
858.2145083753035
 30
0.0
 11
913.8281303903283
 21
858.2145083753035
 31
0.0
  0
LINE
  5
60E
330
1F
100
AcDbEntity
  8
0
100
AcDbLine
 10
947.1922350416106
 20
864.2145083753044
 30
0.0
 11
913.8281303903283
 21
864.2145083753041
 31
0.0
  0
LINE
  5
60F
330
1F
100
AcDbEntity
  8
0
100
AcDbLine
 10
913.8281303903283
 20
868.2145083753036
 30
0.0
 11
947.1922350416106
 21
868.2145083753036
 31
0.0
  0
POLYLINE
  5
610
330
1F
100
AcDbEntity
  8
0
  6
CONTINUOUS
100
AcDb2dPolyline
 66
     1
 10
0.0
 20
0.0
 30
0.0
  0
VERTEX
  5
103D
330
610
100
AcDbEntity
  8
0
  6
CONTINUOUS
100
AcDbVertex
100
AcDb2dVertex
 10
863.9752255734336
 20
901.6409857702962
 30
0.0
 42
-0.6244873880121949
  0
VERTEX
  5
103E
330
610
100
AcDbEntity
  8
0
  6
CONTINUOUS
100
AcDbVertex
100
AcDb2dVertex
 10
869.1224530120368
 20
885.7900567654207
 30
0.0
 42
-0.5712699294635224
  0
VERTEX
  5
103F
330
610
100
AcDbEntity
  8
0
  6
CONTINUOUS
100
AcDbVertex
100
AcDb2dVertex
 10
838.9197158614759
 20
894.2657205512023
 30
0.0
 42
-0.1992749000703595
  0
VERTEX
  5
1040
330
610
100
AcDbEntity
  8
0
  6
CONTINUOUS
100
AcDbVertex
100
AcDb2dVertex
 10
840.7239389469985
 20
911.19288066202
 30
0.0
 42
-0.1922899288213652
  0
VERTEX
  5
1041
330
610
100
AcDbEntity
  8
0
  6
CONTINUOUS
100
AcDbVertex
100
AcDb2dVertex
 10
857.2822644239048
 20
924.1811415104136
 30
0.0
 42
-0.1435180749715141
  0
VERTEX
  5
1042
330
610
100
AcDbEntity
  8
0
  6
CONTINUOUS
100
AcDbVertex
100
AcDb2dVertex
 10
879.852366507567
 20
924.0962766346321
 30
0.0
 42
-0.2013051193684176
  0
VERTEX
  5
1043
330
610
100
AcDbEntity
  8
0
  6
CONTINUOUS
100
AcDbVertex
100
AcDb2dVertex
 10
914.4222941684645
 20
896.3091657987257
 30
0.0
 42
-0.0525451820212675
  0
VERTEX
  5
1044
330
610
100
AcDbEntity
  8
0
  6
CONTINUOUS
100
AcDbVertex
100
AcDb2dVertex
 10
921.0086233594163
 20
880.8566691020851
 30
0.0
  0
SEQEND
  5
1045
330
610
100
AcDbEntity
  8
0
  6
CONTINUOUS
  0
POLYLINE
  5
611
330
1F
100
AcDbEntity
  8
0
  6
CONTINUOUS
100
AcDb2dPolyline
 66
     1
 10
0.0
 20
0.0
 30
0.0
  0
VERTEX
  5
1046
330
611
100
AcDbEntity
  8
0
  6
CONTINUOUS
100
AcDbVertex
100
AcDb2dVertex
 10
863.9752255734336
 20
901.6409857702962
 30
0.0
  0
VERTEX
  5
1047
330
611
100
AcDbEntity
  8
0
  6
CONTINUOUS
100
AcDbVertex
100
AcDb2dVertex
 10
864.1475318509863
 20
899.9800124286135
 30
0.0
 42
-0.5016049534703276
  0
VERTEX
  5
1048
330
611
100
AcDbEntity
  8
0
  6
CONTINUOUS
100
AcDbVertex
100
AcDb2dVertex
 10
864.9598685791577
 20
890.1113018349635
 30
0.0
 42
-0.5731451722580876
  0
VERTEX
  5
1049
330
611
100
AcDbEntity
  8
0
  6
CONTINUOUS
100
AcDbVertex
100
AcDb2dVertex
 10
844.698512545702
 20
895.8830126732957
 30
0.0
 42
-0.1994211041236551
  0
VERTEX
  5
104A
330
611
100
AcDbEntity
  8
0
  6
CONTINUOUS
100
AcDbVertex
100
AcDb2dVertex
 10
845.9539799744277
 20
908.2509828896364
 30
0.0
 42
-0.1912321573076029
  0
VERTEX
  5
104B
330
611
100
AcDbEntity
  8
0
  6
CONTINUOUS
100
AcDbVertex
100
AcDb2dVertex
 10
858.9594599611034
 20
918.4203099200809
 30
0.0
 42
-0.143630861908326
  0
VERTEX
  5
104C
330
611
100
AcDbEntity
  8
0
  6
CONTINUOUS
100
AcDbVertex
100
AcDb2dVertex
 10
878.1690980174996
 20
918.3371568170064
 30
0.0
 42
-0.2016233873508618
  0
VERTEX
  5
104D
330
611
100
AcDbEntity
  8
0
  6
CONTINUOUS
100
AcDbVertex
100
AcDb2dVertex
 10
909.1633295560811
 20
893.4204516295409
 30
0.0
 42
-0.0544492341104313
  0
VERTEX
  5
104E
330
611
100
AcDbEntity
  8
0
  6
CONTINUOUS
100
AcDbVertex
100
AcDb2dVertex
 10
915.3892566887487
 20
878.6924587700815
 30
0.0
 42
-0.056122523359716
  0
SEQEND
  5
104F
330
611
100
AcDbEntity
  8
0
  6
CONTINUOUS
  0
ARC
  5
612
330
1F
100
AcDbEntity
  8
0
  6
CONTINUOUS
100
AcDbCircle
 10
895.5614837976943
 20
976.4426932481562
 30
0.0
 40
14.79145401338622
100
AcDbArc
 50
132.3009873069365
 51
219.049926621495
  0
ARC
  5
613
330
1F
100
AcDbEntity
  8
0
  6
CONTINUOUS
100
AcDbCircle
 10
881.5318158322396
 20
965.0281598002662
 30
0.0
 40
36.97836688373008
100
AcDbArc
 50
10.80235333346608
 51
26.34349293023964
  0
ARC
  5
614
330
1F
100
AcDbEntity
  8
0
  6
CONTINUOUS
100
AcDbCircle
 10
881.5318158322396
 20
965.0281598002662
 30
0.0
 40
42.97836688373009
100
AcDbArc
 50
9.279843458626253
 51
26.34349293023964
  0
ARC
  5
615
330
1F
100
AcDbEntity
  8
0
  6
CONTINUOUS
100
AcDbCircle
 10
894.4676399572243
 20
977.6135420530218
 30
0.0
 40
19.6644356743196
100
AcDbArc
 50
131.716819306387
 51
228.2622202334297
  0
ARC
  5
616
330
1F
100
AcDbEntity
  8
0
  6
CONTINUOUS
100
AcDbCircle
 10
979.4885495996993
 20
965.0281598002662
 30
0.0
 40
36.97836688373008
100
AcDbArc
 50
153.6565070697603
 51
169.1976466665338
  0
ARC
  5
617
330
1F
100
AcDbEntity
  8
0
  6
CONTINUOUS
100
AcDbCircle
 10
979.4885495996993
 20
965.0281598002662
 30
0.0
 40
42.97836688373009
100
AcDbArc
 50
153.6565070697603
 51
170.7201565413737
  0
LINE
  5
618
330
1F
100
AcDbEntity
  8
0
  6
CONTINUOUS
100
AcDbLine
 10
898.790244214121
 20
964.7656696528303
 30
0.0
 11
900.0982737450256
 21
963.0428474765301
 31
0.0
  0
ARC
  5
619
330
1F
100
AcDbEntity
  8
0
  6
CONTINUOUS
100
AcDbCircle
 10
890.685521623055
 20
972.435713115076
 30
0.0
 40
13.29758727790373
100
AcDbArc
 50
225.5692043137184
 51
315.0605888708325
  0
LINE
  5
61A
330
1F
100
AcDbEntity
  8
0
100
AcDbLine
 10
913.8281303903283
 20
961.9587067175999
 30
0.0
 11
913.8281303903283
 21
957.9587067175999
 31
0.0
  0
LINE
  5
61B
330
1F
100
AcDbEntity
  8
0
100
AcDbLine
 10
913.8281303903283
 20
971.9587067176004
 30
0.0
 11
913.8281303903283
 21
967.9587067175999
 31
0.0
  0
ARC
  5
61C
330
1F
100
AcDbEntity
  8
0
100
AcDbCircle
 10
913.8281303903283
 20
964.9587067176
 30
0.0
 40
3.000000000000056
100
AcDbArc
 50
90.0
 51
270.0
  0
ARC
  5
61D
330
1F
100
AcDbEntity
  8
0
  6
CONTINUOUS
100
AcDbCircle
 10
881.5318158322396
 20
965.0281598002662
 30
0.0
 40
36.97836688373008
100
AcDbArc
 50
336.3241931827936
 51
348.9784565766229
  0
ARC
  5
61E
330
1F
100
AcDbEntity
  8
0
  6
CONTINUOUS
100
AcDbCircle
 10
881.5318158322396
 20
965.0281598002662
 30
0.0
 40
42.97836688373009
100
AcDbArc
 50
336.3241931827936
 51
350.5324702247469
  0
LINE
  5
61F
330
1F
100
AcDbEntity
  8
0
100
AcDbLine
 10
947.1922350416106
 20
961.9587067175999
 30
0.0
 11
947.1922350416106
 21
957.9587067175999
 31
0.0
  0
LINE
  5
620
330
1F
100
AcDbEntity
  8
0
100
AcDbLine
 10
947.1922350416106
 20
971.9587067176004
 30
0.0
 11
947.1922350416106
 21
967.9587067175999
 31
0.0
  0
LINE
  5
621
330
1F
100
AcDbEntity
  8
0
  6
CONTINUOUS
100
AcDbLine
 10
962.2301212178179
 20
964.7656696528303
 30
0.0
 11
960.9220916869151
 21
963.0428474765301
 31
0.0
  0
ARC
  5
622
330
1F
100
AcDbEntity
  8
0
100
AcDbCircle
 10
947.1922350416106
 20
964.9587067176
 30
0.0
 40
3.000000000000056
100
AcDbArc
 50
270.0
 51
90.0
  0
ARC
  5
623
330
1F
100
AcDbEntity
  8
0
  6
CONTINUOUS
100
AcDbCircle
 10
979.4885495996993
 20
965.0281598002662
 30
0.0
 40
42.97836688373009
100
AcDbArc
 50
189.467529775253
 51
203.6758068172063
  0
ARC
  5
624
330
1F
100
AcDbEntity
  8
0
  6
CONTINUOUS
100
AcDbCircle
 10
979.4885495996993
 20
965.0281598002662
 30
0.0
 40
36.97836688373008
100
AcDbArc
 50
191.021543423377
 51
203.6758068172063
  0
LINE
  5
625
330
1F
100
AcDbEntity
  8
0
100
AcDbLine
 10
913.8281303903283
 20
971.9587067176004
 30
0.0
 11
947.1922350416106
 21
971.9587067176004
 31
0.0
  0
LINE
  5
626
330
1F
100
AcDbEntity
  8
0
100
AcDbLine
 10
947.1922350416106
 20
967.9587067176013
 30
0.0
 11
913.8281303903283
 21
967.9587067176008
 31
0.0
  0
LINE
  5
627
330
1F
100
AcDbEntity
  8
0
100
AcDbLine
 10
947.1922350416106
 20
961.9587067175999
 30
0.0
 11
913.8281303903283
 21
961.9587067175999
 31
0.0
  0
LINE
  5
628
330
1F
100
AcDbEntity
  8
0
100
AcDbLine
 10
947.1922350416106
 20
957.9587067175999
 30
0.0
 11
913.8281303903283
 21
957.9587067175999
 31
0.0
  0
ARC
  5
629
330
1F
100
AcDbEntity
  8
0
  6
CONTINUOUS
100
AcDbCircle
 10
892.7098762260618
 20
973.9160670617744
 30
0.0
 40
10.98638464699961
100
AcDbArc
 50
218.1859196082446
 51
303.6037291032408
  0
ARC
  5
62A
330
1F
100
AcDbEntity
  8
0
  6
CONTINUOUS
100
AcDbCircle
 10
897.5392987223756
 20
971.7054333663178
 30
0.0
 40
19.7020449873939
100
AcDbArc
 50
29.60090417235141
 51
127.2767026925461
  0
ARC
  5
62B
330
1F
100
AcDbEntity
  8
0
  6
CONTINUOUS
100
AcDbCircle
 10
897.0921148125988
 20
971.0993279200135
 30
0.0
 40
26.38058376875362
100
AcDbArc
 50
29.52527956289985
 51
126.5497067148896
  0
ARC
  5
62C
330
1F
100
AcDbEntity
  8
0
100
AcDbCircle
 10
1300.178583220404
 20
686.1136132392718
 30
0.0
 40
47.3092865871033
100
AcDbArc
 50
326.7886702846587
 51
33.21132971534122
  0
ARC
  5
62D
330
1F
100
AcDbEntity
  8
0
100
AcDbCircle
 10
1265.178583220404
 20
686.1136132392718
 30
0.0
 40
47.3092865871033
100
AcDbArc
 50
326.7886702846587
 51
33.21132971534122
  0
LINE
  5
62E
330
1F
100
AcDbEntity
  8
0
  6
CONTINUOUS
100
AcDbLine
 10
1750.010182715984
 20
537.628220412586
 30
0.0
 11
1750.010182715987
 21
854.2145083753036
 31
0.0
  0
LINE
  5
62F
330
1F
100
AcDbEntity
  8
0
  6
CONTINUOUS
100
AcDbLine
 10
1738.010182715984
 20
537.628220412586
 30
0.0
 11
1738.010182715987
 21
854.2145083753036
 31
0.0
  0
ARC
  5
630
330
1F
100
AcDbEntity
  8
0
100
AcDbCircle
 10
1489.934658197794
 20
639.6059799055652
 30
0.0
 40
106.6116003211486
100
AcDbArc
 50
253.0452386241606
 51
286.9547613758393
  0
ARC
  5
631
330
1F
100
AcDbEntity
  8
0
100
AcDbCircle
 10
1407.917033413049
 20
590.4995135667446
 30
0.0
 40
57.11966942967778
100
AcDbArc
 50
247.7625217860481
 51
292.2374782139518
  0
POLYLINE
  5
632
330
1F
100
AcDbEntity
  8
0
100
AcDb2dPolyline
 66
     1
 10
0.0
 20
0.0
 30
0.0
  0
VERTEX
  5
1050
330
632
100
AcDbEntity
  8
0
100
AcDbVertex
100
AcDb2dVertex
 10
1244.481868240923
 20
560.2755297964264
 30
0.0
 42
0.8476842014660734
  0
VERTEX
  5
1051
330
632
100
AcDbEntity
  8
0
100
AcDbVertex
100
AcDb2dVertex
 10
1256.400583502875
 20
578.3652921567642
 30
0.0
 42
0.527993460888276
  0
VERTEX
  5
1052
330
632
100
AcDbEntity
  8
0
100
AcDbVertex
100
AcDb2dVertex
 10
1223.89548076668
 20
568.5057594751667
 30
0.0
 42
0.1992749000703595
  0
VERTEX
  5
1053
330
632
100
AcDbEntity
  8
0
100
AcDbVertex
100
AcDb2dVertex
 10
1224.29129288046
 20
553.6158573573835
 30
0.0
 42
0.1922899288213652
  0
VERTEX
  5
1054
330
632
100
AcDbEntity
  8
0
100
AcDbVertex
100
AcDb2dVertex
 10
1237.830146112258
 20
541.1349062070236
 30
0.0
 42
0.0798582902643633
  0
VERTEX
  5
1055
330
632
100
AcDbEntity
  8
0
100
AcDbVertex
100
AcDb2dVertex
 10
1256.937505263617
 20
537.6200869957016
 30
0.0
 42
0.2298664334935605
  0
VERTEX
  5
1056
330
632
100
AcDbEntity
  8
0
100
AcDbVertex
100
AcDb2dVertex
 10
1293.378586078918
 20
560.0654774166892
 30
0.0
 42
0.0587651015535746
  0
VERTEX
  5
1057
330
632
100
AcDbEntity
  8
0
100
AcDbVertex
100
AcDb2dVertex
 10
1300.636019579648
 20
573.3468567132501
 30
0.0
  0
SEQEND
  5
1058
330
632
100
AcDbEntity
  8
0
  0
ARC
  5
633
330
1F
100
AcDbEntity
  8
0
100
AcDbCircle
 10
1299.280840551241
 20
577.2098199081552
 30
0.0
 40
47.3092865871033
100
AcDbArc
 50
236.7886702846587
 51
303.2113297153411
  0
ARC
  5
634
330
1F
100
AcDbEntity
  8
0
100
AcDbCircle
 10
1137.561609265795
 20
592.8726615272513
 30
0.0
 40
59.25027723911768
100
AcDbArc
 50
248.8106919803491
 51
291.1893080196508
  0
ARC
  5
635
330
1F
100
AcDbEntity
  8
0
100
AcDbCircle
 10
1061.52138753512
 20
639.6059799055652
 30
0.0
 40
106.6116003211486
100
AcDbArc
 50
253.0452386241606
 51
286.9547613758393
  0
LINE
  5
636
330
1F
100
AcDbEntity
  8
0
100
AcDbLine
 10
1165.442522433023
 20
512.9506924297599
 30
0.0
 11
1163.962165641373
 21
534.1841065326295
 31
0.0
  0
LINE
  5
637
330
1F
100
AcDbEntity
  8
0
100
AcDbLine
 10
1103.225741243969
 20
512.3571034201956
 30
0.0
 11
1104.004860133992
 21
535.3570737190453
 31
0.0
  0
POLYLINE
  5
638
330
1F
100
AcDbEntity
  8
0
100
AcDb2dPolyline
 66
     1
 10
0.0
 20
0.0
 30
0.0
  0
VERTEX
  5
1059
330
638
100
AcDbEntity
  8
0
100
AcDbVertex
100
AcDb2dVertex
 10
1430.038497191034
 20
560.2755297964264
 30
0.0
 42
-0.8476842014660734
  0
VERTEX
  5
105A
330
638
100
AcDbEntity
  8
0
100
AcDbVertex
100
AcDb2dVertex
 10
1418.119781929081
 20
578.3652921567642
 30
0.0
 42
-0.527993460888276
  0
VERTEX
  5
105B
330
638
100
AcDbEntity
  8
0
100
AcDbVertex
100
AcDb2dVertex
 10
1450.624884665276
 20
568.5057594751667
 30
0.0
 42
-0.1992749000703595
  0
VERTEX
  5
105C
330
638
100
AcDbEntity
  8
0
100
AcDbVertex
100
AcDb2dVertex
 10
1450.229072551496
 20
553.6158573573835
 30
0.0
 42
-0.1922899288213652
  0
VERTEX
  5
105D
330
638
100
AcDbEntity
  8
0
100
AcDbVertex
100
AcDb2dVertex
 10
1436.690219319699
 20
541.1349062070236
 30
0.0
 42
-0.0798582902643633
  0
VERTEX
  5
105E
330
638
100
AcDbEntity
  8
0
100
AcDbVertex
100
AcDb2dVertex
 10
1417.582860168339
 20
537.6200869957016
 30
0.0
 42
-0.2298664334935605
  0
VERTEX
  5
105F
330
638
100
AcDbEntity
  8
0
100
AcDbVertex
100
AcDb2dVertex
 10
1381.141779353038
 20
560.0654774166892
 30
0.0
 42
-0.0587651015535746
  0
VERTEX
  5
1060
330
638
100
AcDbEntity
  8
0
100
AcDbVertex
100
AcDb2dVertex
 10
1373.884345852308
 20
573.3468567132501
 30
0.0
  0
SEQEND
  5
1061
330
638
100
AcDbEntity
  8
0
  0
ARC
  5
639
330
1F
100
AcDbEntity
  8
0
100
AcDbCircle
 10
1104.378328371115
 20
479.2125106048748
 30
0.0
 40
30.75581818224811
100
AcDbArc
 50
67.50505788344454
 51
112.4949421165554
  0
LINE
  5
63A
330
1F
100
AcDbEntity
  8
0
100
AcDbLine
 10
1012.427575779035
 20
532.6325207718288
 30
0.0
 11
1012.427575779035
 21
514.9014451235995
 31
0.0
  0
LINE
  5
63B
330
1F
100
AcDbEntity
  8
0
100
AcDbLine
 10
1059.82268358153
 20
531.2442526657502
 30
0.0
 11
1059.220613756959
 21
508.9518690823675
 31
0.0
  0
LINE
  5
63C
330
1F
100
AcDbEntity
  8
0
100
AcDbLine
 10
1061.026823230674
 20
510.7593664735465
 30
0.0
 11
1064.639265067439
 21
531.2442526657502
 31
0.0
  0
LINE
  5
63D
330
1F
100
AcDbEntity
  8
0
100
AcDbLine
 10
1034.351938083353
 20
528.1480018779981
 30
0.0
 11
1034.823698880177
 21
510.2086238050138
 31
0.0
  0
LINE
  5
63E
330
1F
100
AcDbEntity
  8
0
100
AcDbLine
 10
1033.40842793437
 20
509.2644490812159
 30
0.0
 11
1031.993156988563
 21
526.2596524303986
 31
0.0
  0
LINE
  5
63F
330
1F
100
AcDbEntity
  8
0
100
AcDbLine
 10
984.302078540845
 20
532.8627129334269
 30
0.0
 11
985.7173494866517
 21
513.5070727747439
 31
0.0
  0
ARC
  5
640
330
1F
100
AcDbEntity
  8
0
100
AcDbCircle
 10
1015.776086327964
 20
484.3911426665687
 30
0.0
 40
27.47268131795497
100
AcDbArc
 50
57.76042437566056
 51
122.2395756243394
  0
LINE
  5
641
330
1F
100
AcDbEntity
  8
0
100
AcDbLine
 10
1225.918008120465
 20
512.669197412451
 30
0.0
 11
1225.918008120465
 21
533.0810270939506
 31
0.0
  0
LINE
  5
642
330
1F
100
AcDbEntity
  8
0
100
AcDbLine
 10
1228.878939152521
 20
533.0810270939506
 30
0.0
 11
1227.891962141836
 21
514.6445225995154
 31
0.0
  0
ARC
  5
643
330
1F
100
AcDbEntity
  8
0
100
AcDbCircle
 10
1193.779356971964
 20
459.9139580512961
 30
0.0
 40
51.17711403260225
100
AcDbArc
 50
68.80192224697278
 51
111.1980777530272
  0
ARC
  5
644
330
1F
100
AcDbEntity
  8
0
100
AcDbCircle
 10
1167.125856193019
 20
495.3893149789779
 30
0.0
 40
14.70319572620801
100
AcDbArc
 50
56.34582724878467
 51
123.6541727512153
  0
LINE
  5
645
330
1F
100
AcDbEntity
  8
0
100
AcDbLine
 10
1134.016668100521
 20
532.1411292281478
 30
0.0
 11
1139.903955812552
 21
509.753682755632
 31
0.0
  0
LINE
  5
646
330
1F
100
AcDbEntity
  8
0
100
AcDbLine
 10
1139.903955812552
 20
509.753682755632
 30
0.0
 11
1138.726505136951
 21
531.3556064958025
 31
0.0
  0
LINE
  5
647
330
1F
100
AcDbEntity
  8
0
100
AcDbLine
 10
1191.64961808447
 20
513.4479938135842
 30
0.0
 11
1192.636526427126
 21
533.6938036437128
 31
0.0
  0
LINE
  5
648
330
1F
100
AcDbEntity
  8
0
100
AcDbLine
 10
1195.597240010429
 20
532.7061993709718
 30
0.0
 11
1192.636526427126
 21
513.9417765096911
 31
0.0
  0
LINE
  5
649
330
1F
100
AcDbEntity
  8
0
100
AcDbLine
 10
1165.442522433023
 20
533.6903043962589
 30
0.0
 11
1168.403247461
 21
511.4692860206483
 31
0.0
  0
LINE
  5
64A
330
1F
100
AcDbEntity
  8
0
100
AcDbLine
 10
1105.952640192034
 20
533.0180989605902
 30
0.0
 11
1105.952640192034
 21
511.5774516474663
 31
0.0
  0
ARC
  5
64B
330
1F
100
AcDbEntity
  8
0
100
AcDbCircle
 10
1254.862886602408
 20
459.9139580512961
 30
0.0
 40
51.17711403260225
100
AcDbArc
 50
68.80192224697278
 51
111.1980777530272
  0
LINE
  5
64C
330
1F
100
AcDbEntity
  8
0
100
AcDbLine
 10
1253.590490933464
 20
513.3273086569894
 30
0.0
 11
1252.603513922776
 21
532.7514757449567
 31
0.0
  0
LINE
  5
64D
330
1F
100
AcDbEntity
  8
0
100
AcDbLine
 10
1254.906456466153
 20
533.4099174739782
 30
0.0
 11
1254.57746794415
 21
512.6688669279716
 31
0.0
  0
LINE
  5
64E
330
1F
100
AcDbEntity
  8
0
100
AcDbLine
 10
1321.648609479169
 20
509.3762111568026
 30
0.0
 11
1319.306091262337
 21
527.1249580046675
 31
0.0
  0
LINE
  5
64F
330
1F
100
AcDbEntity
  8
0
100
AcDbLine
 10
1317.967499614431
 20
526.455182601952
 30
0.0
 11
1318.302153248744
 21
509.3762111568026
 31
0.0
  0
LINE
  5
650
330
1F
100
AcDbEntity
  8
0
100
AcDbLine
 10
1440.840846441708
 20
532.6325207718288
 30
0.0
 11
1440.840846441708
 21
514.9014451235995
 31
0.0
  0
LINE
  5
651
330
1F
100
AcDbEntity
  8
0
100
AcDbLine
 10
1462.765208746027
 20
528.1480018779981
 30
0.0
 11
1463.23696954285
 21
510.2086238050138
 31
0.0
  0
LINE
  5
652
330
1F
100
AcDbEntity
  8
0
100
AcDbLine
 10
1461.821698597043
 20
509.2644490812159
 30
0.0
 11
1460.406427651236
 21
526.2596524303986
 31
0.0
  0
LINE
  5
653
330
1F
100
AcDbEntity
  8
0
100
AcDbLine
 10
1488.235954244203
 20
531.2442526657502
 30
0.0
 11
1487.633884419633
 21
508.9518690823675
 31
0.0
  0
LINE
  5
654
330
1F
100
AcDbEntity
  8
0
100
AcDbLine
 10
1489.440093893347
 20
510.7593664735465
 30
0.0
 11
1493.052535730113
 21
531.2442526657502
 31
0.0
  0
LINE
  5
655
330
1F
100
AcDbEntity
  8
0
100
AcDbLine
 10
1412.715349203518
 20
532.8627129334269
 30
0.0
 11
1414.130620149325
 21
513.5070727747439
 31
0.0
  0
LINE
  5
656
330
1F
100
AcDbEntity
  8
0
100
AcDbLine
 10
1382.755419932121
 20
509.3762111568026
 30
0.0
 11
1380.412901715288
 21
527.1249580046675
 31
0.0
  0
LINE
  5
657
330
1F
100
AcDbEntity
  8
0
100
AcDbLine
 10
1379.074310067383
 20
526.455182601952
 30
0.0
 11
1379.408963701695
 21
509.3762111568026
 31
0.0
  0
ARC
  5
658
330
1F
100
AcDbEntity
  8
0
100
AcDbCircle
 10
1444.189356990637
 20
484.3911426665687
 30
0.0
 40
27.47268131795497
100
AcDbArc
 50
57.76042437566056
 51
122.2395756243394
  0
POLYLINE
  5
659
330
1F
100
AcDbEntity
  8
0
100
AcDb2dPolyline
 66
     1
 10
0.0
 20
0.0
 30
0.0
  0
VERTEX
  5
1062
330
659
100
AcDbEntity
  8
0
100
AcDbVertex
100
AcDb2dVertex
 10
1244.940957450572
 20
562.3016333408255
 30
0.0
 42
0.7261678006308835
  0
VERTEX
  5
1063
330
659
100
AcDbEntity
  8
0
100
AcDbVertex
100
AcDb2dVertex
 10
1252.582185002763
 20
573.7362569271414
 30
0.0
 42
0.5304465470200191
  0
VERTEX
  5
1064
330
659
100
AcDbEntity
  8
0
100
AcDbVertex
100
AcDb2dVertex
 10
1229.563960534957
 20
566.5263636525029
 30
0.0
 42
0.2013805755683081
  0
VERTEX
  5
1065
330
659
100
AcDbEntity
  8
0
100
AcDbVertex
100
AcDb2dVertex
 10
1229.738881711174
 20
556.1322542277372
 30
0.0
 42
0.1902567765406998
  0
VERTEX
  5
1066
330
659
100
AcDbEntity
  8
0
100
AcDbVertex
100
AcDb2dVertex
 10
1239.907803689681
 20
546.7642357348246
 30
0.0
 42
0.0778313275902115
  0
VERTEX
  5
1067
330
659
100
AcDbEntity
  8
0
100
AcDbVertex
100
AcDb2dVertex
 10
1256.701639307472
 20
543.6281767427614
 30
0.0
 42
0.2285481872617097
  0
VERTEX
  5
1068
330
659
100
AcDbEntity
  8
0
100
AcDbVertex
100
AcDb2dVertex
 10
1288.397733675967
 20
563.4146547175683
 30
0.0
 42
0.0594209396267578
  0
VERTEX
  5
1069
330
659
100
AcDbEntity
  8
0
100
AcDbVertex
100
AcDb2dVertex
 10
1295.070079327892
 20
575.5874613445763
 30
0.0
 42
0.0594209396267578
  0
SEQEND
  5
106A
330
659
100
AcDbEntity
  8
0
  0
ARC
  5
65A
330
1F
100
AcDbEntity
  8
0
100
AcDbCircle
 10
1015.776086327964
 20
576.5534562600729
 30
0.0
 40
41.59279291423044
100
AcDbArc
 50
249.368331147106
 51
290.6316688528939
  0
ARC
  5
65B
330
1F
100
AcDbEntity
  8
0
100
AcDbCircle
 10
1193.779356971964
 20
609.531812610559
 30
0.0
 40
74.24670187285427
100
AcDbArc
 50
255.5674138149335
 51
284.4325861850664
  0
ARC
  5
65C
330
1F
100
AcDbEntity
  8
0
100
AcDbCircle
 10
1167.125856193019
 20
554.6046584939209
 30
0.0
 40
18.83062952425546
100
AcDbArc
 50
244.3603398615404
 51
295.6396601384596
  0
POLYLINE
  5
65D
330
1F
100
AcDbEntity
  8
0
100
AcDb2dPolyline
 66
     1
 10
0.0
 20
0.0
 30
0.0
  0
VERTEX
  5
106B
330
65D
100
AcDbEntity
  8
0
100
AcDbVertex
100
AcDb2dVertex
 10
1408.037428605516
 20
618.7065727987906
 30
0.0
 42
0.7261678006308835
  0
VERTEX
  5
106C
330
65D
100
AcDbEntity
  8
0
100
AcDbVertex
100
AcDb2dVertex
 10
1409.963900488127
 20
605.089389494207
 30
0.0
 42
0.5304465470200191
  0
VERTEX
  5
106D
330
65D
100
AcDbEntity
  8
0
100
AcDbVertex
100
AcDb2dVertex
 10
1422.315865478158
 20
625.8077431828347
 30
0.0
 42
0.2013805755683081
  0
VERTEX
  5
106E
330
65D
100
AcDbEntity
  8
0
100
AcDbVertex
100
AcDb2dVertex
 10
1415.256739543433
 20
633.4390503572018
 30
0.0
 42
0.1902567765406998
  0
VERTEX
  5
106F
330
65D
100
AcDbEntity
  8
0
100
AcDbVertex
100
AcDb2dVertex
 10
1401.431944546656
 20
633.6434714560042
 30
0.0
 42
0.0778313275902115
  0
VERTEX
  5
1070
330
65D
100
AcDbEntity
  8
0
100
AcDbVertex
100
AcDb2dVertex
 10
1386.823087716321
 20
624.7863227686536
 30
0.0
 42
0.2285481872617097
  0
VERTEX
  5
1071
330
65D
100
AcDbEntity
  8
0
100
AcDbVertex
100
AcDb2dVertex
 10
1376.386101265709
 20
588.9085243036721
 30
0.0
 42
0.0594209396267578
  0
VERTEX
  5
1072
330
65D
100
AcDbEntity
  8
0
100
AcDbVertex
100
AcDb2dVertex
 10
1379.526865365524
 20
575.3869482658497
 30
0.0
 42
0.0594209396267578
  0
SEQEND
  5
1073
330
65D
100
AcDbEntity
  8
0
  0
POLYLINE
  5
65E
330
1F
100
AcDbEntity
  8
0
100
AcDb2dPolyline
 66
     1
 10
0.0
 20
0.0
 30
0.0
  0
VERTEX
  5
1074
330
65E
100
AcDbEntity
  8
0
100
AcDbVertex
100
AcDb2dVertex
 10
1266.48293682644
 20
618.7065727987906
 30
0.0
 42
-0.7261678006308835
  0
VERTEX
  5
1075
330
65E
100
AcDbEntity
  8
0
100
AcDbVertex
100
AcDb2dVertex
 10
1264.556464943829
 20
605.089389494207
 30
0.0
 42
-0.5304465470200191
  0
VERTEX
  5
1076
330
65E
100
AcDbEntity
  8
0
100
AcDbVertex
100
AcDb2dVertex
 10
1252.204499953798
 20
625.8077431828347
 30
0.0
 42
-0.2013805755683081
  0
VERTEX
  5
1077
330
65E
100
AcDbEntity
  8
0
100
AcDbVertex
100
AcDb2dVertex
 10
1259.263625888523
 20
633.4390503572018
 30
0.0
 42
-0.1902567765406998
  0
VERTEX
  5
1078
330
65E
100
AcDbEntity
  8
0
100
AcDbVertex
100
AcDb2dVertex
 10
1273.088420885301
 20
633.6434714560042
 30
0.0
 42
-0.0778313275902115
  0
VERTEX
  5
1079
330
65E
100
AcDbEntity
  8
0
100
AcDbVertex
100
AcDb2dVertex
 10
1287.697277715635
 20
624.7863227686536
 30
0.0
 42
-0.2285481872617097
  0
VERTEX
  5
107A
330
65E
100
AcDbEntity
  8
0
100
AcDbVertex
100
AcDb2dVertex
 10
1298.134264166247
 20
588.9085243036721
 30
0.0
 42
-0.0594209396267578
  0
VERTEX
  5
107B
330
65E
100
AcDbEntity
  8
0
100
AcDbVertex
100
AcDb2dVertex
 10
1294.993500066432
 20
575.3869482658497
 30
0.0
 42
-0.0594209396267578
  0
SEQEND
  5
107C
330
65E
100
AcDbEntity
  8
0
  0
POLYLINE
  5
65F
330
1F
100
AcDbEntity
  8
0
100
AcDb2dPolyline
 66
     1
 10
0.0
 20
0.0
 30
0.0
  0
VERTEX
  5
107D
330
65F
100
AcDbEntity
  8
0
100
AcDbVertex
100
AcDb2dVertex
 10
1267.491330804087
 20
620.5228877662108
 30
0.0
 42
-0.8476842014660734
  0
VERTEX
  5
107E
330
65F
100
AcDbEntity
  8
0
100
AcDbVertex
100
AcDb2dVertex
 10
1264.317025373434
 20
599.0934906495919
 30
0.0
 42
-0.527993460888276
  0
VERTEX
  5
107F
330
65F
100
AcDbEntity
  8
0
100
AcDbVertex
100
AcDb2dVertex
 10
1246.659668489674
 20
628.1108963997545
 30
0.0
 42
-0.1992749000703595
  0
VERTEX
  5
1080
330
65F
100
AcDbEntity
  8
0
100
AcDbVertex
100
AcDb2dVertex
 10
1256.88035530284
 20
638.9461819693084
 30
0.0
 42
-0.1922899288213652
  0
VERTEX
  5
1081
330
65F
100
AcDbEntity
  8
0
100
AcDbVertex
100
AcDb2dVertex
 10
1275.292230817894
 20
639.2246213126733
 30
0.0
 42
-0.0798582902643633
  0
VERTEX
  5
1082
330
65F
100
AcDbEntity
  8
0
100
AcDbVertex
100
AcDb2dVertex
 10
1291.878101880613
 20
629.1076055017671
 30
0.0
 42
-0.2298664334935605
  0
VERTEX
  5
1083
330
65F
100
AcDbEntity
  8
0
100
AcDbVertex
100
AcDb2dVertex
 10
1304.079628366161
 20
588.0847987528328
 30
0.0
 42
-0.0587651015535746
  0
VERTEX
  5
1084
330
65F
100
AcDbEntity
  8
0
100
AcDbVertex
100
AcDb2dVertex
 10
1300.636019579648
 20
573.3468567132501
 30
0.0
  0
SEQEND
  5
1085
330
65F
100
AcDbEntity
  8
0
  0
POLYLINE
  5
660
330
1F
100
AcDbEntity
  8
0
100
AcDb2dPolyline
 66
     1
 10
0.0
 20
0.0
 30
0.0
  0
VERTEX
  5
1086
330
660
100
AcDbEntity
  8
0
100
AcDbVertex
100
AcDb2dVertex
 10
1407.029034627869
 20
620.5228877662108
 30
0.0
 42
0.8476842014660734
  0
VERTEX
  5
1087
330
660
100
AcDbEntity
  8
0
100
AcDbVertex
100
AcDb2dVertex
 10
1410.203340058523
 20
599.0934906495919
 30
0.0
 42
0.527993460888276
  0
VERTEX
  5
1088
330
660
100
AcDbEntity
  8
0
100
AcDbVertex
100
AcDb2dVertex
 10
1427.860696942282
 20
628.1108963997545
 30
0.0
 42
0.1992749000703595
  0
VERTEX
  5
1089
330
660
100
AcDbEntity
  8
0
100
AcDbVertex
100
AcDb2dVertex
 10
1417.640010129117
 20
638.9461819693084
 30
0.0
 42
0.1922899288213652
  0
VERTEX
  5
108A
330
660
100
AcDbEntity
  8
0
100
AcDbVertex
100
AcDb2dVertex
 10
1399.228134614063
 20
639.2246213126733
 30
0.0
 42
0.0798582902643633
  0
VERTEX
  5
108B
330
660
100
AcDbEntity
  8
0
100
AcDbVertex
100
AcDb2dVertex
 10
1382.642263551343
 20
629.1076055017671
 30
0.0
 42
0.2298664334935605
  0
VERTEX
  5
108C
330
660
100
AcDbEntity
  8
0
100
AcDbVertex
100
AcDb2dVertex
 10
1370.440737065796
 20
588.0847987528328
 30
0.0
 42
0.0587651015535746
  0
VERTEX
  5
108D
330
660
100
AcDbEntity
  8
0
100
AcDbVertex
100
AcDb2dVertex
 10
1373.884345852308
 20
573.3468567132501
 30
0.0
  0
SEQEND
  5
108E
330
660
100
AcDbEntity
  8
0
  0
LINE
  5
661
330
1F
100
AcDbEntity
  8
0
100
AcDbLine
 10
1343.698098732301
 20
552.2752951210556
 30
0.0
 11
1365.919117107911
 21
555.2360201490306
 31
0.0
  0
LINE
  5
662
330
1F
100
AcDbEntity
  8
0
100
AcDbLine
 10
1364.4377106988
 20
552.2752951210556
 30
0.0
 11
1343.20429659593
 21
550.794938329404
 31
0.0
  0
LINE
  5
663
330
1F
100
AcDbEntity
  8
0
100
AcDbLine
 10
1363.940409314976
 20
578.4823907725009
 30
0.0
 11
1343.694599484847
 21
579.4692991151593
 31
0.0
  0
LINE
  5
664
330
1F
100
AcDbEntity
  8
0
100
AcDbLine
 10
1364.719205716109
 20
612.7507808084962
 30
0.0
 11
1344.307376034609
 21
612.7507808084962
 31
0.0
  0
ARC
  5
665
330
1F
100
AcDbEntity
  8
0
100
AcDbCircle
 10
1267.856590518001
 20
580.6121296599946
 30
0.0
 40
74.24670187285427
100
AcDbArc
 50
345.5674138149892
 51
14.43258618501076
  0
ARC
  5
666
330
1F
100
AcDbEntity
  8
0
100
AcDbCircle
 10
1382.474445077264
 20
580.6121296599946
 30
0.0
 40
51.17711403260225
100
AcDbArc
 50
158.8019222469722
 51
201.1980777530278
  0
ARC
  5
667
330
1F
100
AcDbEntity
  8
0
100
AcDbCircle
 10
1322.783744634639
 20
553.9586288810502
 30
0.0
 40
18.83062952425546
100
AcDbArc
 50
334.3603398614806
 51
25.63966013851934
  0
ARC
  5
668
330
1F
100
AcDbEntity
  8
0
100
AcDbCircle
 10
1346.999088149582
 20
553.9586288810502
 30
0.0
 40
14.70319572620801
100
AcDbArc
 50
146.3458272488429
 51
213.654172751157
  0
LINE
  5
669
330
1F
100
AcDbEntity
  8
0
100
AcDbLine
 10
1344.682203757588
 20
582.4300126984622
 30
0.0
 11
1363.446626618869
 21
579.4692991151593
 31
0.0
  0
ARC
  5
66A
330
1F
100
AcDbEntity
  8
0
100
AcDbCircle
 10
1232.856590518001
 20
580.6121296599946
 30
0.0
 40
74.24670187285427
100
AcDbArc
 50
345.5674138149892
 51
14.43258618501076
  0
ARC
  5
66B
330
1F
100
AcDbEntity
  8
0
100
AcDbCircle
 10
1287.783744634639
 20
553.9586288810502
 30
0.0
 40
18.83062952425546
100
AcDbArc
 50
334.3603398614806
 51
25.63966013851934
  0
LINE
  5
66C
330
1F
100
AcDbEntity
  8
0
100
AcDbLine
 10
1329.4377106988
 20
552.2752951210556
 30
0.0
 11
1308.20429659593
 21
550.794938329404
 31
0.0
  0
LINE
  5
66D
330
1F
100
AcDbEntity
  8
0
100
AcDbLine
 10
1308.698098732301
 20
552.2752951210556
 30
0.0
 11
1330.919117107911
 21
555.2360201490306
 31
0.0
  0
LINE
  5
66E
330
1F
100
AcDbEntity
  8
0
100
AcDbLine
 10
1309.682203757588
 20
582.4300126984622
 30
0.0
 11
1328.446626618869
 21
579.4692991151593
 31
0.0
  0
LINE
  5
66F
330
1F
100
AcDbEntity
  8
0
100
AcDbLine
 10
1328.940409314975
 20
578.4823907725009
 30
0.0
 11
1308.694599484847
 21
579.4692991151593
 31
0.0
  0
LINE
  5
670
330
1F
100
AcDbEntity
  8
0
100
AcDbLine
 10
1329.719205716108
 20
612.7507808084962
 30
0.0
 11
1309.307376034609
 21
612.7507808084962
 31
0.0
  0
ARC
  5
671
330
1F
100
AcDbEntity
  8
0
100
AcDbCircle
 10
1254.862886602408
 20
609.531812610559
 30
0.0
 40
74.24670187285427
100
AcDbArc
 50
255.5674138149335
 51
284.4325861850664
  0
LINE
  5
672
330
1F
100
AcDbEntity
  8
0
100
AcDbLine
 10
1244.940957450572
 20
562.3016333408255
 30
0.0
 11
1244.481868240923
 21
560.2755297964264
 31
0.0
  0
ARC
  5
673
330
1F
100
AcDbEntity
  8
0
100
AcDbCircle
 10
1417.474445077264
 20
580.6121296599946
 30
0.0
 40
51.17711403260225
100
AcDbArc
 50
158.8019222469722
 51
201.1980777530278
  0
ARC
  5
674
330
1F
100
AcDbEntity
  8
0
100
AcDbCircle
 10
1381.999088149582
 20
553.9586288810502
 30
0.0
 40
14.70319572620801
100
AcDbArc
 50
146.3458272488429
 51
213.654172751157
  0
LINE
  5
675
330
1F
100
AcDbEntity
  8
0
100
AcDbLine
 10
1429.579407981384
 20
562.3016333408255
 30
0.0
 11
1430.038497191034
 21
560.2755297964264
 31
0.0
  0
ARC
  5
676
330
1F
100
AcDbEntity
  8
0
100
AcDbCircle
 10
1444.189356990637
 20
576.5534562600729
 30
0.0
 40
41.59279291423044
100
AcDbArc
 50
249.368331147106
 51
290.6316688528939
  0
POLYLINE
  5
677
330
1F
100
AcDbEntity
  8
0
100
AcDb2dPolyline
 66
     1
 10
0.0
 20
0.0
 30
0.0
  0
VERTEX
  5
108F
330
677
100
AcDbEntity
  8
0
100
AcDbVertex
100
AcDb2dVertex
 10
1429.579407981384
 20
562.3016333408255
 30
0.0
 42
-0.7261678006308835
  0
VERTEX
  5
1090
330
677
100
AcDbEntity
  8
0
100
AcDbVertex
100
AcDb2dVertex
 10
1421.938180429194
 20
573.7362569271414
 30
0.0
 42
-0.5304465470200191
  0
VERTEX
  5
1091
330
677
100
AcDbEntity
  8
0
100
AcDbVertex
100
AcDb2dVertex
 10
1444.956404896999
 20
566.5263636525029
 30
0.0
 42
-0.2013805755683081
  0
VERTEX
  5
1092
330
677
100
AcDbEntity
  8
0
100
AcDbVertex
100
AcDb2dVertex
 10
1444.781483720783
 20
556.1322542277372
 30
0.0
 42
-0.1902567765406998
  0
VERTEX
  5
1093
330
677
100
AcDbEntity
  8
0
100
AcDbVertex
100
AcDb2dVertex
 10
1434.612561742275
 20
546.7642357348246
 30
0.0
 42
-0.0778313275902115
  0
VERTEX
  5
1094
330
677
100
AcDbEntity
  8
0
100
AcDbVertex
100
AcDb2dVertex
 10
1417.818726124484
 20
543.6281767427614
 30
0.0
 42
-0.2285481872617097
  0
VERTEX
  5
1095
330
677
100
AcDbEntity
  8
0
100
AcDbVertex
100
AcDb2dVertex
 10
1386.122631755989
 20
563.4146547175683
 30
0.0
 42
-0.0594209396267578
  0
VERTEX
  5
1096
330
677
100
AcDbEntity
  8
0
100
AcDbVertex
100
AcDb2dVertex
 10
1379.450286104064
 20
575.5874613445763
 30
0.0
 42
-0.0594209396267578
  0
SEQEND
  5
1097
330
677
100
AcDbEntity
  8
0
  0
LINE
  5
678
330
1F
100
AcDbEntity
  8
0
100
AcDbLine
 10
1344.307376034609
 20
615.7117118405537
 30
0.0
 11
1362.743880529044
 21
614.7247348298666
 31
0.0
  0
LINE
  5
679
330
1F
100
AcDbEntity
  8
0
100
AcDbLine
 10
1343.978485654582
 20
641.7392291541861
 30
0.0
 11
1364.719536200588
 21
641.4102406321805
 31
0.0
  0
LINE
  5
67A
330
1F
100
AcDbEntity
  8
0
100
AcDbLine
 10
1364.06109447157
 20
640.4232636214953
 30
0.0
 11
1344.636927383603
 21
639.4362866108082
 31
0.0
  0
LINE
  5
67B
330
1F
100
AcDbEntity
  8
0
100
AcDbLine
 10
1309.307376034609
 20
615.7117118405537
 30
0.0
 11
1327.743880529044
 21
614.7247348298666
 31
0.0
  0
LINE
  5
67C
330
1F
100
AcDbEntity
  8
0
100
AcDbLine
 10
1308.978485654582
 20
641.7392291541861
 30
0.0
 11
1329.719536200588
 21
641.4102406321805
 31
0.0
  0
LINE
  5
67D
330
1F
100
AcDbEntity
  8
0
100
AcDbLine
 10
1329.06109447157
 20
640.4232636214953
 30
0.0
 11
1309.636927383603
 21
639.4362866108082
 31
0.0
  0
LINE
  5
67E
330
1F
100
AcDbEntity
  8
0
100
AcDbLine
 10
1266.48293682644
 20
618.7065727987906
 30
0.0
 11
1267.491330804087
 21
620.5228877662108
 31
0.0
  0
ARC
  5
67F
330
1F
100
AcDbEntity
  8
0
100
AcDbCircle
 10
1232.856590518001
 20
641.6956592904394
 30
0.0
 40
74.24670187285427
100
AcDbArc
 50
345.5674138149892
 51
14.43258618501076
  0
ARC
  5
680
330
1F
100
AcDbEntity
  8
0
100
AcDbCircle
 10
1267.856590518001
 20
641.6956592904394
 30
0.0
 40
74.24670187285427
100
AcDbArc
 50
345.5674138149892
 51
14.43258618501076
  0
ARC
  5
681
330
1F
100
AcDbEntity
  8
0
100
AcDbCircle
 10
1382.474445077264
 20
641.6956592904394
 30
0.0
 40
51.17711403260225
100
AcDbArc
 50
158.8019222469722
 51
201.1980777530278
  0
LINE
  5
682
330
1F
100
AcDbEntity
  8
0
100
AcDbLine
 10
1408.037428605516
 20
618.7065727987906
 30
0.0
 11
1407.029034627869
 21
620.5228877662108
 31
0.0
  0
ARC
  5
683
330
1F
100
AcDbEntity
  8
0
100
AcDbCircle
 10
1417.474445077264
 20
641.6956592904394
 30
0.0
 40
51.17711403260225
100
AcDbArc
 50
158.8019222469722
 51
201.1980777530278
  0
ARC
  5
684
330
1F
100
AcDbEntity
  8
0
100
AcDbCircle
 10
1951.061609265806
 20
592.8726615272513
 30
0.0
 40
59.25027723911768
100
AcDbArc
 50
248.8106919803491
 51
291.1893080196508
  0
LINE
  5
685
330
1F
100
AcDbEntity
  8
0
100
AcDbLine
 10
1916.72574124398
 20
512.3571034201956
 30
0.0
 11
1917.504860134003
 21
535.3570737190453
 31
0.0
  0
LINE
  5
686
330
1F
100
AcDbEntity
  8
0
100
AcDbLine
 10
1978.942522433034
 20
512.9506924297599
 30
0.0
 11
1977.462165641384
 21
534.1841065326295
 31
0.0
  0
ARC
  5
687
330
1F
100
AcDbEntity
  8
0
100
AcDbCircle
 10
1793.003762750386
 20
590.4995135667446
 30
0.0
 40
57.11966942967778
100
AcDbArc
 50
247.7625217860481
 51
292.2374782139518
  0
ARC
  5
688
330
1F
100
AcDbEntity
  8
0
100
AcDbCircle
 10
1745.47438034153
 20
577.2098199081552
 30
0.0
 40
47.3092865871033
100
AcDbArc
 50
236.7886702846587
 51
303.2113297153411
  0
LINE
  5
689
330
1F
100
AcDbEntity
  8
0
100
AcDbLine
 10
1531.639011906642
 20
512.3571034201956
 30
0.0
 11
1532.418130796665
 21
535.3570737190453
 31
0.0
  0
ARC
  5
68A
330
1F
100
AcDbEntity
  8
0
100
AcDbCircle
 10
1620.4108863696
 20
639.6059799055652
 30
0.0
 40
106.6116003211486
100
AcDbArc
 50
253.0452386241606
 51
286.9547613758393
  0
ARC
  5
68B
330
1F
100
AcDbEntity
  8
0
100
AcDbCircle
 10
1875.021387535131
 20
639.6059799055652
 30
0.0
 40
106.6116003211486
100
AcDbArc
 50
253.0452386241606
 51
286.9547613758393
  0
LINE
  5
68C
330
1F
100
AcDbEntity
  8
0
100
AcDbLine
 10
1767.842149269458
 20
509.3762111568026
 30
0.0
 11
1765.499631052626
 21
527.1249580046675
 31
0.0
  0
ARC
  5
68D
330
1F
100
AcDbEntity
  8
0
100
AcDbCircle
 10
1574.665585162444
 20
484.3911426665687
 30
0.0
 40
27.47268131795497
100
AcDbArc
 50
57.76042437566056
 51
122.2395756243394
  0
ARC
  5
68E
330
1F
100
AcDbEntity
  8
0
100
AcDbCircle
 10
1532.791599033788
 20
479.2125106048748
 30
0.0
 40
30.75581818224811
100
AcDbArc
 50
67.50505788344454
 51
112.4949421165554
  0
LINE
  5
68F
330
1F
100
AcDbEntity
  8
0
100
AcDbLine
 10
1571.317074613515
 20
532.6325207718306
 30
0.0
 11
1571.317074613515
 21
514.9014451236013
 31
0.0
  0
LINE
  5
690
330
1F
100
AcDbEntity
  8
0
100
AcDbLine
 10
1593.241436917834
 20
528.1480018779999
 30
0.0
 11
1593.713197714657
 21
510.2086238050157
 31
0.0
  0
LINE
  5
691
330
1F
100
AcDbEntity
  8
0
100
AcDbLine
 10
1534.365910854708
 20
533.0180989605902
 30
0.0
 11
1534.365910854708
 21
511.5774516474663
 31
0.0
  0
LINE
  5
692
330
1F
100
AcDbEntity
  8
0
100
AcDbLine
 10
1592.29792676885
 20
509.2644490812177
 30
0.0
 11
1590.882655823043
 21
526.2596524304004
 31
0.0
  0
LINE
  5
693
330
1F
100
AcDbEntity
  8
0
100
AcDbLine
 10
1619.916322065154
 20
510.7593664735465
 30
0.0
 11
1623.528763901919
 21
531.2442526657502
 31
0.0
  0
LINE
  5
694
330
1F
100
AcDbEntity
  8
0
100
AcDbLine
 10
1618.71218241601
 20
531.2442526657502
 30
0.0
 11
1618.110112591439
 21
508.9518690823675
 31
0.0
  0
ARC
  5
695
330
1F
100
AcDbEntity
  8
0
100
AcDbCircle
 10
1701.056426392698
 20
459.9139580512961
 30
0.0
 40
51.17711403260225
100
AcDbArc
 50
68.80192224697278
 51
111.1980777530272
  0
LINE
  5
696
330
1F
100
AcDbEntity
  8
0
100
AcDbLine
 10
1672.111547910754
 20
512.669197412451
 30
0.0
 11
1672.111547910754
 21
533.0810270939506
 31
0.0
  0
LINE
  5
697
330
1F
100
AcDbEntity
  8
0
100
AcDbLine
 10
1675.07247894281
 20
533.0810270939506
 30
0.0
 11
1674.085501932125
 21
514.6445225995154
 31
0.0
  0
LINE
  5
698
330
1F
100
AcDbEntity
  8
0
100
AcDbLine
 10
1699.784030723753
 20
513.3273086569894
 30
0.0
 11
1698.797053713064
 21
532.7514757449567
 31
0.0
  0
LINE
  5
699
330
1F
100
AcDbEntity
  8
0
100
AcDbLine
 10
1701.099996256442
 20
533.4099174739782
 30
0.0
 11
1700.771007734438
 21
512.6688669279716
 31
0.0
  0
LINE
  5
69A
330
1F
100
AcDbEntity
  8
0
100
AcDbLine
 10
1764.16103940472
 20
526.455182601952
 30
0.0
 11
1764.495693039033
 21
509.3762111568026
 31
0.0
  0
LINE
  5
69B
330
1F
100
AcDbEntity
  8
0
100
AcDbLine
 10
1874.526823230685
 20
510.7593664735465
 30
0.0
 11
1878.13926506745
 21
531.2442526657502
 31
0.0
  0
LINE
  5
69C
330
1F
100
AcDbEntity
  8
0
100
AcDbLine
 10
1873.322683581541
 20
531.2442526657502
 30
0.0
 11
1872.72061375697
 21
508.9518690823675
 31
0.0
  0
ARC
  5
69D
330
1F
100
AcDbEntity
  8
0
100
AcDbCircle
 10
1829.276086327975
 20
484.3911426665687
 30
0.0
 40
27.47268131795497
100
AcDbArc
 50
57.76042437566056
 51
122.2395756243394
  0
LINE
  5
69E
330
1F
100
AcDbEntity
  8
0
100
AcDbLine
 10
1797.802078540856
 20
532.8627129334269
 30
0.0
 11
1799.217349486662
 21
513.5070727747439
 31
0.0
  0
LINE
  5
69F
330
1F
100
AcDbEntity
  8
0
100
AcDbLine
 10
1847.851938083365
 20
528.1480018779981
 30
0.0
 11
1848.323698880188
 21
510.2086238050138
 31
0.0
  0
LINE
  5
6A0
330
1F
100
AcDbEntity
  8
0
100
AcDbLine
 10
1825.927575779046
 20
532.6325207718288
 30
0.0
 11
1825.927575779046
 21
514.9014451235995
 31
0.0
  0
LINE
  5
6A1
330
1F
100
AcDbEntity
  8
0
100
AcDbLine
 10
1846.908427934381
 20
509.2644490812159
 30
0.0
 11
1845.493156988574
 21
526.2596524303986
 31
0.0
  0
ARC
  5
6A2
330
1F
100
AcDbEntity
  8
0
100
AcDbCircle
 10
2007.279356971975
 20
459.9139580512961
 30
0.0
 40
51.17711403260225
100
AcDbArc
 50
68.80192224697278
 51
111.1980777530272
  0
ARC
  5
6A3
330
1F
100
AcDbEntity
  8
0
100
AcDbCircle
 10
1980.62585619303
 20
495.3893149789779
 30
0.0
 40
14.70319572620801
100
AcDbArc
 50
56.34582724878467
 51
123.6541727512153
  0
ARC
  5
6A4
330
1F
100
AcDbEntity
  8
0
100
AcDbCircle
 10
1917.878328371126
 20
479.2125106048748
 30
0.0
 40
30.75581818224811
100
AcDbArc
 50
67.50505788344454
 51
112.4949421165554
  0
LINE
  5
6A5
330
1F
100
AcDbEntity
  8
0
100
AcDbLine
 10
1919.452640192045
 20
533.0180989605902
 30
0.0
 11
1919.452640192045
 21
511.5774516474663
 31
0.0
  0
LINE
  5
6A6
330
1F
100
AcDbEntity
  8
0
100
AcDbLine
 10
1978.942522433034
 20
533.6903043962589
 30
0.0
 11
1981.903247461011
 21
511.4692860206483
 31
0.0
  0
LINE
  5
6A7
330
1F
100
AcDbEntity
  8
0
100
AcDbLine
 10
2009.09724001044
 20
532.7061993709718
 30
0.0
 11
2006.136526427138
 21
513.9417765096911
 31
0.0
  0
LINE
  5
6A8
330
1F
100
AcDbEntity
  8
0
100
AcDbLine
 10
2005.149618084481
 20
513.4479938135842
 30
0.0
 11
2006.136526427138
 21
533.6938036437128
 31
0.0
  0
LINE
  5
6A9
330
1F
100
AcDbEntity
  8
0
100
AcDbLine
 10
1953.403955812563
 20
509.753682755632
 30
0.0
 11
1952.226505136962
 21
531.3556064958025
 31
0.0
  0
LINE
  5
6AA
330
1F
100
AcDbEntity
  8
0
100
AcDbLine
 10
1947.516668100533
 20
532.1411292281478
 30
0.0
 11
1953.403955812563
 21
509.753682755632
 31
0.0
  0
ARC
  5
6AB
330
1F
100
AcDbEntity
  8
0
100
AcDbCircle
 10
1574.665585162444
 20
576.5534562600729
 30
0.0
 40
41.59279291423044
100
AcDbArc
 50
249.368331147106
 51
290.6316688528939
  0
ARC
  5
6AC
330
1F
100
AcDbEntity
  8
0
100
AcDbCircle
 10
1701.056426392698
 20
609.531812610559
 30
0.0
 40
74.24670187285427
100
AcDbArc
 50
255.5674138149335
 51
284.4325861850664
  0
ARC
  5
6AD
330
1F
100
AcDbEntity
  8
0
100
AcDbCircle
 10
1829.276086327975
 20
576.5534562600729
 30
0.0
 40
41.59279291423044
100
AcDbArc
 50
249.368331147106
 51
290.6316688528939
  0
ARC
  5
6AE
330
1F
100
AcDbEntity
  8
0
100
AcDbCircle
 10
2007.279356971975
 20
609.531812610559
 30
0.0
 40
74.24670187285427
100
AcDbArc
 50
255.5674138149335
 51
284.4325861850664
  0
ARC
  5
6AF
330
1F
100
AcDbEntity
  8
0
100
AcDbCircle
 10
1980.62585619303
 20
554.6046584939209
 30
0.0
 40
18.83062952425546
100
AcDbArc
 50
244.3603398615404
 51
295.6396601384596
  0
ARC
  5
6B0
330
1F
100
AcDbEntity
  8
0
100
AcDbCircle
 10
1265.834946868487
 20
769.9153192257159
 30
0.0
 40
41.59279291423044
100
AcDbArc
 50
339.3683311470979
 51
20.63166885290214
  0
ARC
  5
6B1
330
1F
100
AcDbEntity
  8
0
100
AcDbCircle
 10
1300.834946868487
 20
769.9153192257159
 30
0.0
 40
41.59279291423044
100
AcDbArc
 50
339.3683311470979
 51
20.63166885290214
  0
ARC
  5
6B2
330
1F
100
AcDbEntity
  8
0
100
AcDbCircle
 10
1357.997260461991
 20
769.9153192257159
 30
0.0
 40
27.47268131795497
100
AcDbArc
 50
147.7604243756004
 51
212.2395756243995
  0
ARC
  5
6B3
330
1F
100
AcDbEntity
  8
0
100
AcDbCircle
 10
1392.997260461991
 20
769.9153192257159
 30
0.0
 40
27.47268131795497
100
AcDbArc
 50
147.7604243756004
 51
212.2395756243995
  0
LINE
  5
6B4
330
1F
100
AcDbEntity
  8
0
100
AcDbLine
 10
1368.012191971757
 20
708.4813821672002
 30
0.0
 11
1350.263445123892
 21
706.1388639503698
 31
0.0
  0
LINE
  5
6B5
330
1F
100
AcDbEntity
  8
0
100
AcDbLine
 10
1350.933220526608
 20
704.8002723024625
 30
0.0
 11
1368.012191971757
 21
705.1349259367749
 31
0.0
  0
ARC
  5
6B6
330
1F
100
AcDbEntity
  8
0
100
AcDbCircle
 10
1286.888889561815
 20
733.6429956481294
 30
0.0
 40
57.11966942967778
100
AcDbArc
 50
337.7625217859816
 51
22.23747821401841
  0
LINE
  5
6B7
330
1F
100
AcDbEntity
  8
0
100
AcDbLine
 10
1344.525690195133
 20
738.4413114385976
 30
0.0
 11
1363.881330353816
 21
739.8565823844043
 31
0.0
  0
LINE
  5
6B8
330
1F
100
AcDbEntity
  8
0
100
AcDbLine
 10
1344.755882356731
 20
766.5668086767879
 30
0.0
 11
1362.48695800496
 21
766.5668086767879
 31
0.0
  0
ARC
  5
6B9
330
1F
100
AcDbEntity
  8
0
100
AcDbCircle
 10
1251.888889561815
 20
733.6429956481294
 30
0.0
 40
57.11966942967778
100
AcDbArc
 50
337.7625217859816
 51
22.23747821401841
  0
LINE
  5
6BA
330
1F
100
AcDbEntity
  8
0
100
AcDbLine
 10
1333.012191971757
 20
708.4813821672002
 30
0.0
 11
1315.263445123892
 21
706.1388639503698
 31
0.0
  0
LINE
  5
6BB
330
1F
100
AcDbEntity
  8
0
100
AcDbLine
 10
1315.933220526608
 20
704.8002723024625
 30
0.0
 11
1333.012191971757
 21
705.1349259367749
 31
0.0
  0
LINE
  5
6BC
330
1F
100
AcDbEntity
  8
0
100
AcDbLine
 10
1309.525690195133
 20
738.4413114385976
 30
0.0
 11
1328.881330353816
 21
739.8565823844043
 31
0.0
  0
LINE
  5
6BD
330
1F
100
AcDbEntity
  8
0
100
AcDbLine
 10
1309.755882356731
 20
766.5668086767879
 30
0.0
 11
1327.48695800496
 21
766.5668086767879
 31
0.0
  0
LINE
  5
6BE
330
1F
100
AcDbEntity
  8
0
100
AcDbLine
 10
1368.123954047344
 20
787.5476608321247
 30
0.0
 11
1351.128750698161
 21
786.132389886318
 31
0.0
  0
LINE
  5
6BF
330
1F
100
AcDbEntity
  8
0
100
AcDbLine
 10
1349.240401250562
 20
788.4911709811063
 30
0.0
 11
1367.179779323546
 21
788.9629317779314
 31
0.0
  0
LINE
  5
6C0
330
1F
100
AcDbEntity
  8
0
100
AcDbLine
 10
1346.144150462809
 20
813.9619164792843
 30
0.0
 11
1368.436534046192
 21
813.3598466547143
 31
0.0
  0
LINE
  5
6C1
330
1F
100
AcDbEntity
  8
0
100
AcDbLine
 10
1366.629036655013
 20
815.1660561284266
 30
0.0
 11
1346.144150462809
 21
818.7784979651938
 31
0.0
  0
ARC
  5
6C2
330
1F
100
AcDbEntity
  8
0
100
AcDbCircle
 10
1237.782423222994
 20
815.6606204328733
 30
0.0
 40
106.6116003211486
100
AcDbArc
 50
343.0452386242168
 51
16.9547613757832
  0
ARC
  5
6C3
330
1F
100
AcDbEntity
  8
0
100
AcDbCircle
 10
1202.782423222994
 20
815.6606204328733
 30
0.0
 40
106.6116003211486
100
AcDbArc
 50
343.0452386242168
 51
16.9547613757832
  0
LINE
  5
6C4
330
1F
100
AcDbEntity
  8
0
100
AcDbLine
 10
1333.123954047344
 20
787.5476608321247
 30
0.0
 11
1316.128750698161
 21
786.132389886318
 31
0.0
  0
LINE
  5
6C5
330
1F
100
AcDbEntity
  8
0
100
AcDbLine
 10
1314.240401250562
 20
788.4911709811063
 30
0.0
 11
1332.179779323546
 21
788.9629317779314
 31
0.0
  0
LINE
  5
6C6
330
1F
100
AcDbEntity
  8
0
100
AcDbLine
 10
1311.144150462809
 20
813.9619164792843
 30
0.0
 11
1333.436534046192
 21
813.3598466547143
 31
0.0
  0
LINE
  5
6C7
330
1F
100
AcDbEntity
  8
0
100
AcDbLine
 10
1331.629036655013
 20
815.1660561284266
 30
0.0
 11
1311.144150462809
 21
818.7784979651938
 31
0.0
  0
ARC
  5
6C8
330
1F
100
AcDbEntity
  8
0
  6
CONTINUOUS
100
AcDbCircle
 10
977.7855454526259
 20
968.7705605421884
 30
0.0
 40
38.35657218847958
100
AcDbArc
 50
269.6877094220554
 51
28.15496996003036
  0
ARC
  5
6C9
330
1F
100
AcDbEntity
  8
0
  6
CONTINUOUS
100
AcDbCircle
 10
977.7855454526259
 20
968.7705605421884
 30
0.0
 40
44.35657218847958
100
AcDbArc
 50
269.744158379718
 51
28.12809001184518
  0
ARC
  5
6CA
330
1F
100
AcDbEntity
  8
0
  6
CONTINUOUS
100
AcDbCircle
 10
965.4588816342446
 20
976.4426932481562
 30
0.0
 40
14.79145401338622
100
AcDbArc
 50
320.9500733785048
 51
47.69901269306344
  0
ARC
  5
6CB
330
1F
100
AcDbEntity
  8
0
  6
CONTINUOUS
100
AcDbCircle
 10
966.5527254747146
 20
977.6135420530218
 30
0.0
 40
19.6644356743196
100
AcDbArc
 50
311.7377797665702
 51
48.283180693613
  0
ARC
  5
6CC
330
1F
100
AcDbEntity
  8
0
100
AcDbCircle
 10
1300.178583220404
 20
940.7241144048027
 30
0.0
 40
47.3092865871033
100
AcDbArc
 50
326.7886702846587
 51
33.21132971534122
  0
ARC
  5
6CD
330
1F
100
AcDbEntity
  8
0
100
AcDbCircle
 10
1265.178583220404
 20
940.7241144048027
 30
0.0
 40
47.3092865871033
100
AcDbArc
 50
326.7886702846587
 51
33.21132971534122
  0
LINE
  5
6CE
330
1F
100
AcDbEntity
  8
0
100
AcDbLine
 10
1344.307376034609
 20
870.3222130060845
 30
0.0
 11
1362.743880529044
 21
869.3352359953975
 31
0.0
  0
LINE
  5
6CF
330
1F
100
AcDbEntity
  8
0
100
AcDbLine
 10
1364.719205716109
 20
867.361281974027
 30
0.0
 11
1344.307376034609
 21
867.361281974027
 31
0.0
  0
LINE
  5
6D0
330
1F
100
AcDbEntity
  8
0
100
AcDbLine
 10
1343.978485654582
 20
896.349730319717
 30
0.0
 11
1364.719536200588
 21
896.0207417977114
 31
0.0
  0
LINE
  5
6D1
330
1F
100
AcDbEntity
  8
0
100
AcDbLine
 10
1364.06109447157
 20
895.0337647870261
 30
0.0
 11
1344.636927383603
 21
894.046787776339
 31
0.0
  0
LINE
  5
6D2
330
1F
100
AcDbEntity
  8
0
100
AcDbLine
 10
1309.307376034609
 20
870.3222130060845
 30
0.0
 11
1327.743880529044
 21
869.3352359953975
 31
0.0
  0
LINE
  5
6D3
330
1F
100
AcDbEntity
  8
0
100
AcDbLine
 10
1329.719205716108
 20
867.361281974027
 30
0.0
 11
1309.307376034609
 21
867.361281974027
 31
0.0
  0
LINE
  5
6D4
330
1F
100
AcDbEntity
  8
0
100
AcDbLine
 10
1308.978485654582
 20
896.349730319717
 30
0.0
 11
1329.719536200588
 21
896.0207417977114
 31
0.0
  0
LINE
  5
6D5
330
1F
100
AcDbEntity
  8
0
100
AcDbLine
 10
1329.06109447157
 20
895.0337647870261
 30
0.0
 11
1309.636927383603
 21
894.046787776339
 31
0.0
  0
ARC
  5
6D6
330
1F
100
AcDbEntity
  8
0
100
AcDbCircle
 10
1232.856590518001
 20
896.3061604559703
 30
0.0
 40
74.24670187285427
100
AcDbArc
 50
345.5674138149892
 51
14.43258618501076
  0
ARC
  5
6D7
330
1F
100
AcDbEntity
  8
0
100
AcDbCircle
 10
1267.856590518001
 20
896.3061604559703
 30
0.0
 40
74.24670187285427
100
AcDbArc
 50
345.5674138149892
 51
14.43258618501076
  0
ARC
  5
6D8
330
1F
100
AcDbEntity
  8
0
100
AcDbCircle
 10
1382.474445077264
 20
896.3061604559703
 30
0.0
 40
51.17711403260225
100
AcDbArc
 50
158.8019222469722
 51
201.1980777530278
  0
ARC
  5
6D9
330
1F
100
AcDbEntity
  8
0
100
AcDbCircle
 10
1417.474445077264
 20
896.3061604559703
 30
0.0
 40
51.17711403260225
100
AcDbArc
 50
158.8019222469722
 51
201.1980777530278
  0
LINE
  5
6DA
330
1F
100
AcDbEntity
  8
0
100
AcDbLine
 10
1368.012191971757
 20
963.091883332731
 30
0.0
 11
1350.263445123892
 21
960.7493651159007
 31
0.0
  0
LINE
  5
6DB
330
1F
100
AcDbEntity
  8
0
100
AcDbLine
 10
1350.933220526608
 20
959.4107734679933
 30
0.0
 11
1368.012191971757
 21
959.7454271023059
 31
0.0
  0
ARC
  5
6DC
330
1F
100
AcDbEntity
  8
0
100
AcDbCircle
 10
1286.888889561815
 20
988.2534968136603
 30
0.0
 40
57.11966942967778
100
AcDbArc
 50
337.7625217859816
 51
22.23747821401841
  0
LINE
  5
6DD
330
1F
100
AcDbEntity
  8
0
100
AcDbLine
 10
1344.525690195133
 20
993.0518126041285
 30
0.0
 11
1363.881330353816
 21
994.4670835499351
 31
0.0
  0
ARC
  5
6DE
330
1F
100
AcDbEntity
  8
0
100
AcDbCircle
 10
1251.888889561815
 20
988.2534968136603
 30
0.0
 40
57.11966942967778
100
AcDbArc
 50
337.7625217859816
 51
22.23747821401841
  0
LINE
  5
6DF
330
1F
100
AcDbEntity
  8
0
100
AcDbLine
 10
1309.525690195133
 20
993.0518126041285
 30
0.0
 11
1328.881330353816
 21
994.4670835499351
 31
0.0
  0
LINE
  5
6E0
330
1F
100
AcDbEntity
  8
0
100
AcDbLine
 10
1333.012191971757
 20
963.091883332731
 30
0.0
 11
1315.263445123892
 21
960.7493651159007
 31
0.0
  0
LINE
  5
6E1
330
1F
100
AcDbEntity
  8
0
100
AcDbLine
 10
1315.933220526608
 20
959.4107734679933
 30
0.0
 11
1333.012191971757
 21
959.7454271023059
 31
0.0
  0
POLYLINE
  5
6E2
330
1F
100
AcDbEntity
  8
0
  6
CONTINUOUS
100
AcDb2dPolyline
 66
     1
 10
0.0
 20
0.0
 30
0.0
  0
VERTEX
  5
1098
330
6E2
100
AcDbEntity
  8
0
  6
CONTINUOUS
100
AcDbVertex
100
AcDb2dVertex
 10
1790.013060292672
 20
831.6144112797365
 30
0.0
 42
-0.624487388012175
  0
VERTEX
  5
1099
330
6E2
100
AcDbEntity
  8
0
  6
CONTINUOUS
100
AcDbVertex
100
AcDb2dVertex
 10
1794.240058808835
 20
847.7351551883362
 30
0.0
 42
-0.5712699294635224
  0
VERTEX
  5
109A
330
6E2
100
AcDbEntity
  8
0
  6
CONTINUOUS
100
AcDbVertex
100
AcDb2dVertex
 10
1815.084168455691
 20
824.2923460344533
 30
0.0
 42
-0.1992749000703595
  0
VERTEX
  5
109B
330
6E2
100
AcDbEntity
  8
0
  6
CONTINUOUS
100
AcDbVertex
100
AcDb2dVertex
 10
1804.425166158279
 20
811.0194548504129
 30
0.0
 42
-0.1922899288213652
  0
VERTEX
  5
109C
330
6E2
100
AcDbEntity
  8
0
  6
CONTINUOUS
100
AcDbVertex
100
AcDb2dVertex
 10
1783.474974348912
 20
809.0288454924927
 30
0.0
 42
-0.1435180749715141
  0
VERTEX
  5
109D
330
6E2
100
AcDbEntity
  8
0
  6
CONTINUOUS
100
AcDbVertex
100
AcDb2dVertex
 10
1764.524136890772
 20
821.2878205617712
 30
0.0
 42
-0.1601386182095308
  0
VERTEX
  5
109E
330
6E2
100
AcDbEntity
  8
0
  6
CONTINUOUS
100
AcDbVertex
100
AcDb2dVertex
 10
1750.484631598678
 20
854.2145083753036
 30
0.0
 42
-0.1601386182095308
  0
SEQEND
  5
109F
330
6E2
100
AcDbEntity
  8
0
  6
CONTINUOUS
  0
POLYLINE
  5
6E3
330
1F
100
AcDbEntity
  8
0
  6
CONTINUOUS
100
AcDb2dPolyline
 66
     1
 10
0.0
 20
0.0
 30
0.0
  0
VERTEX
  5
10A0
330
6E3
100
AcDbEntity
  8
0
  6
CONTINUOUS
100
AcDbVertex
100
AcDb2dVertex
 10
1790.013060292672
 20
831.6144112797365
 30
0.0
  0
VERTEX
  5
10A1
330
6E3
100
AcDbEntity
  8
0
  6
CONTINUOUS
100
AcDbVertex
100
AcDb2dVertex
 10
1790.764937509521
 20
833.1054520390194
 30
0.0
 42
-0.5016049534703276
  0
VERTEX
  5
10A2
330
6E3
100
AcDbEntity
  8
0
  6
CONTINUOUS
100
AcDbVertex
100
AcDb2dVertex
 10
1795.410183765131
 20
841.8503377996181
 30
0.0
 42
-0.5731451722580876
  0
VERTEX
  5
10A3
330
6E3
100
AcDbEntity
  8
0
  6
CONTINUOUS
100
AcDbVertex
100
AcDb2dVertex
 10
1809.346991123754
 20
826.0515848436281
 30
0.0
 42
-0.1994211041236551
  0
VERTEX
  5
10A4
330
6E3
100
AcDbEntity
  8
0
  6
CONTINUOUS
100
AcDbVertex
100
AcDb2dVertex
 10
1801.611762284973
 20
816.3197237395744
 30
0.0
 42
-0.1912321573076029
  0
VERTEX
  5
10A5
330
6E3
100
AcDbEntity
  8
0
  6
CONTINUOUS
100
AcDbVertex
100
AcDb2dVertex
 10
1785.174093118676
 20
814.7832491008967
 30
0.0
 42
-0.143630861908326
  0
VERTEX
  5
10A6
330
6E3
100
AcDbEntity
  8
0
  6
CONTINUOUS
100
AcDbVertex
100
AcDb2dVertex
 10
1769.05074581609
 20
825.2261787883231
 30
0.0
 42
-0.1577079741972947
  0
VERTEX
  5
10A7
330
6E3
100
AcDbEntity
  8
0
  6
CONTINUOUS
100
AcDbVertex
100
AcDb2dVertex
 10
1756.509197070582
 20
854.2145083753036
 30
0.0
 42
-0.1577079741972947
  0
SEQEND
  5
10A8
330
6E3
100
AcDbEntity
  8
0
  6
CONTINUOUS
  0
POLYLINE
  5
6E4
330
1F
100
AcDbEntity
  8
0
  6
CONTINUOUS
100
AcDb2dPolyline
 66
     1
 10
0.0
 20
0.0
 30
0.0
  0
VERTEX
  5
10A9
330
6E4
100
AcDbEntity
  8
0
  6
CONTINUOUS
100
AcDbVertex
100
AcDb2dVertex
 10
1698.007305139303
 20
831.6144112797365
 30
0.0
 42
0.624487388012175
  0
VERTEX
  5
10AA
330
6E4
100
AcDbEntity
  8
0
  6
CONTINUOUS
100
AcDbVertex
100
AcDb2dVertex
 10
1693.780306623139
 20
847.7351551883362
 30
0.0
 42
0.5712699294635224
  0
VERTEX
  5
10AB
330
6E4
100
AcDbEntity
  8
0
  6
CONTINUOUS
100
AcDbVertex
100
AcDb2dVertex
 10
1672.936196976283
 20
824.2923460344533
 30
0.0
 42
0.1992749000703595
  0
VERTEX
  5
10AC
330
6E4
100
AcDbEntity
  8
0
  6
CONTINUOUS
100
AcDbVertex
100
AcDb2dVertex
 10
1683.595199273696
 20
811.0194548504129
 30
0.0
 42
0.1922899288213652
  0
VERTEX
  5
10AD
330
6E4
100
AcDbEntity
  8
0
  6
CONTINUOUS
100
AcDbVertex
100
AcDb2dVertex
 10
1704.545391083061
 20
809.0288454924927
 30
0.0
 42
0.1435180749715141
  0
VERTEX
  5
10AE
330
6E4
100
AcDbEntity
  8
0
  6
CONTINUOUS
100
AcDbVertex
100
AcDb2dVertex
 10
1723.496228541202
 20
821.2878205617712
 30
0.0
 42
0.1601386182095308
  0
VERTEX
  5
10AF
330
6E4
100
AcDbEntity
  8
0
  6
CONTINUOUS
100
AcDbVertex
100
AcDb2dVertex
 10
1737.535733833296
 20
854.2145083753036
 30
0.0
 42
0.1601386182095308
  0
SEQEND
  5
10B0
330
6E4
100
AcDbEntity
  8
0
  6
CONTINUOUS
  0
POLYLINE
  5
6E5
330
1F
100
AcDbEntity
  8
0
  6
CONTINUOUS
100
AcDb2dPolyline
 66
     1
 10
0.0
 20
0.0
 30
0.0
  0
VERTEX
  5
10B1
330
6E5
100
AcDbEntity
  8
0
  6
CONTINUOUS
100
AcDbVertex
100
AcDb2dVertex
 10
1698.007305139303
 20
831.6144112797365
 30
0.0
  0
VERTEX
  5
10B2
330
6E5
100
AcDbEntity
  8
0
  6
CONTINUOUS
100
AcDbVertex
100
AcDb2dVertex
 10
1697.255427922454
 20
833.1054520390194
 30
0.0
 42
0.5016049534703276
  0
VERTEX
  5
10B3
330
6E5
100
AcDbEntity
  8
0
  6
CONTINUOUS
100
AcDbVertex
100
AcDb2dVertex
 10
1692.610181666844
 20
841.8503377996181
 30
0.0
 42
0.5731451722580876
  0
VERTEX
  5
10B4
330
6E5
100
AcDbEntity
  8
0
  6
CONTINUOUS
100
AcDbVertex
100
AcDb2dVertex
 10
1678.673374308221
 20
826.0515848436281
 30
0.0
 42
0.1994211041236551
  0
VERTEX
  5
10B5
330
6E5
100
AcDbEntity
  8
0
  6
CONTINUOUS
100
AcDbVertex
100
AcDb2dVertex
 10
1686.408603147002
 20
816.3197237395744
 30
0.0
 42
0.1912321573076029
  0
VERTEX
  5
10B6
330
6E5
100
AcDbEntity
  8
0
  6
CONTINUOUS
100
AcDbVertex
100
AcDb2dVertex
 10
1702.846272313298
 20
814.7832491008967
 30
0.0
 42
0.143630861908326
  0
VERTEX
  5
10B7
330
6E5
100
AcDbEntity
  8
0
  6
CONTINUOUS
100
AcDbVertex
100
AcDb2dVertex
 10
1718.969619615884
 20
825.2261787883231
 30
0.0
 42
0.1577079741972947
  0
VERTEX
  5
10B8
330
6E5
100
AcDbEntity
  8
0
  6
CONTINUOUS
100
AcDbVertex
100
AcDb2dVertex
 10
1731.511168361391
 20
854.2145083753036
 30
0.0
 42
0.1577079741972947
  0
SEQEND
  5
10B9
330
6E5
100
AcDbEntity
  8
0
  6
CONTINUOUS
  0
ARC
  5
6E6
330
1F
100
AcDbEntity
  8
0
  6
CONTINUOUS
100
AcDbCircle
 10
1777.428250619358
 20
971.0993279200135
 30
0.0
 40
26.38058376875362
100
AcDbArc
 50
53.45029328511034
 51
150.4747204371001
  0
ARC
  5
6E7
330
1F
100
AcDbEntity
  8
0
  6
CONTINUOUS
100
AcDbCircle
 10
1776.981066709581
 20
971.7054333663178
 30
0.0
 40
19.7020449873939
100
AcDbArc
 50
52.72329730745384
 51
150.3990958276485
  0
ARC
  5
6E8
330
1F
100
AcDbEntity
  8
0
  6
CONTINUOUS
100
AcDbCircle
 10
1789.926542449181
 20
964.2712853855179
 30
0.0
 40
33.8737589960223
100
AcDbArc
 50
204.4466176865892
 51
271.6684235434292
  0
ARC
  5
6E9
330
1F
100
AcDbEntity
  8
0
  6
CONTINUOUS
100
AcDbCircle
 10
1789.926542449181
 20
964.2712853855179
 30
0.0
 40
39.8737589960223
100
AcDbArc
 50
204.4466176865892
 51
271.6684235434292
  0
POLYLINE
  5
6EA
330
1F
100
AcDbEntity
  8
0
  6
CONTINUOUS
100
AcDb2dPolyline
 66
     1
 10
0.0
 20
0.0
 30
0.0
  0
VERTEX
  5
10BA
330
6EA
100
AcDbEntity
  8
0
  6
CONTINUOUS
100
AcDbVertex
100
AcDb2dVertex
 10
1810.545139858523
 20
901.6409857702962
 30
0.0
  0
VERTEX
  5
10BB
330
6EA
100
AcDbEntity
  8
0
  6
CONTINUOUS
100
AcDbVertex
100
AcDb2dVertex
 10
1810.37283358097
 20
899.9800124286135
 30
0.0
 42
0.5016049534703276
  0
VERTEX
  5
10BC
330
6EA
100
AcDbEntity
  8
0
  6
CONTINUOUS
100
AcDbVertex
100
AcDb2dVertex
 10
1809.560496852799
 20
890.1113018349635
 30
0.0
 42
0.5731451722580876
  0
VERTEX
  5
10BD
330
6EA
100
AcDbEntity
  8
0
  6
CONTINUOUS
100
AcDbVertex
100
AcDb2dVertex
 10
1829.821852886255
 20
895.8830126732957
 30
0.0
 42
0.1994211041236551
  0
VERTEX
  5
10BE
330
6EA
100
AcDbEntity
  8
0
  6
CONTINUOUS
100
AcDbVertex
100
AcDb2dVertex
 10
1828.566385457529
 20
908.2509828896364
 30
0.0
 42
0.1912321573076029
  0
VERTEX
  5
10BF
330
6EA
100
AcDbEntity
  8
0
  6
CONTINUOUS
100
AcDbVertex
100
AcDb2dVertex
 10
1815.560905470853
 20
918.4203099200809
 30
0.0
 42
0.143630861908326
  0
VERTEX
  5
10C0
330
6EA
100
AcDbEntity
  8
0
  6
CONTINUOUS
100
AcDbVertex
100
AcDb2dVertex
 10
1796.351267414457
 20
918.3371568170064
 30
0.0
 42
0.2016233873508618
  0
VERTEX
  5
10C1
330
6EA
100
AcDbEntity
  8
0
  6
CONTINUOUS
100
AcDbVertex
100
AcDb2dVertex
 10
1765.357035875876
 20
893.4204516295409
 30
0.0
 42
0.0544492341104313
  0
VERTEX
  5
10C2
330
6EA
100
AcDbEntity
  8
0
  6
CONTINUOUS
100
AcDbVertex
100
AcDb2dVertex
 10
1759.131108743208
 20
878.6924587700815
 30
0.0
 42
0.056122523359716
  0
SEQEND
  5
10C3
330
6EA
100
AcDbEntity
  8
0
  6
CONTINUOUS
  0
POLYLINE
  5
6EB
330
1F
100
AcDbEntity
  8
0
  6
CONTINUOUS
100
AcDb2dPolyline
 66
     1
 10
0.0
 20
0.0
 30
0.0
  0
VERTEX
  5
10C4
330
6EB
100
AcDbEntity
  8
0
  6
CONTINUOUS
100
AcDbVertex
100
AcDb2dVertex
 10
1810.545139858523
 20
901.6409857702962
 30
0.0
 42
0.6244873880121949
  0
VERTEX
  5
10C5
330
6EB
100
AcDbEntity
  8
0
  6
CONTINUOUS
100
AcDbVertex
100
AcDb2dVertex
 10
1805.39791241992
 20
885.7900567654207
 30
0.0
 42
0.5712699294635224
  0
VERTEX
  5
10C6
330
6EB
100
AcDbEntity
  8
0
  6
CONTINUOUS
100
AcDbVertex
100
AcDb2dVertex
 10
1835.600649570481
 20
894.2657205512023
 30
0.0
 42
0.1992749000703595
  0
VERTEX
  5
10C7
330
6EB
100
AcDbEntity
  8
0
  6
CONTINUOUS
100
AcDbVertex
100
AcDb2dVertex
 10
1833.796426484958
 20
911.19288066202
 30
0.0
 42
0.1922899288213652
  0
VERTEX
  5
10C8
330
6EB
100
AcDbEntity
  8
0
  6
CONTINUOUS
100
AcDbVertex
100
AcDb2dVertex
 10
1817.238101008052
 20
924.1811415104136
 30
0.0
 42
0.1435180749715141
  0
VERTEX
  5
10C9
330
6EB
100
AcDbEntity
  8
0
  6
CONTINUOUS
100
AcDbVertex
100
AcDb2dVertex
 10
1794.66799892439
 20
924.0962766346321
 30
0.0
 42
0.2013051193684176
  0
VERTEX
  5
10CA
330
6EB
100
AcDbEntity
  8
0
  6
CONTINUOUS
100
AcDbVertex
100
AcDb2dVertex
 10
1760.098071263492
 20
896.3091657987257
 30
0.0
 42
0.0525451820212675
  0
VERTEX
  5
10CB
330
6EB
100
AcDbEntity
  8
0
  6
CONTINUOUS
100
AcDbVertex
100
AcDb2dVertex
 10
1753.51174207254
 20
880.8566691020851
 30
0.0
  0
SEQEND
  5
10CC
330
6EB
100
AcDbEntity
  8
0
  6
CONTINUOUS
  0
ARC
  5
6EC
330
1F
100
AcDbEntity
  8
0
  6
CONTINUOUS
100
AcDbCircle
 10
1696.734819979331
 20
968.7705605421884
 30
0.0
 40
44.35657218847958
100
AcDbArc
 50
151.8719099881548
 51
270.2558416202819
  0
ARC
  5
6ED
330
1F
100
AcDbEntity
  8
0
  6
CONTINUOUS
100
AcDbCircle
 10
1696.734819979331
 20
968.7705605421884
 30
0.0
 40
38.35657218847958
100
AcDbArc
 50
151.8450300399696
 51
270.3122905779446
  0
ARC
  5
6EE
330
1F
100
AcDbEntity
  8
0
  6
CONTINUOUS
100
AcDbCircle
 10
1698.093822982794
 20
964.2712853855179
 30
0.0
 40
39.8737589960223
100
AcDbArc
 50
268.3315764565707
 51
335.5533823134107
  0
ARC
  5
6EF
330
1F
100
AcDbEntity
  8
0
  6
CONTINUOUS
100
AcDbCircle
 10
1698.093822982794
 20
964.2712853855179
 30
0.0
 40
33.8737589960223
100
AcDbArc
 50
268.3315764565707
 51
335.5533823134107
  0
LINE
  5
6F0
330
1F
100
AcDbEntity
  8
0
  6
CONTINUOUS
100
AcDbLine
 10
1738.010182715987
 20
868.2145083753036
 30
0.0
 11
1738.010182715987
 21
957.9587067175999
 31
0.0
  0
LINE
  5
6F1
330
1F
100
AcDbEntity
  8
0
  6
CONTINUOUS
100
AcDbLine
 10
1750.010182715987
 20
868.2145083753036
 30
0.0
 11
1750.010182715987
 21
957.9587067175999
 31
0.0
  0
LINE
  5
6F2
330
1F
100
AcDbEntity
  8
0
100
AcDbLine
 10
1760.692235041628
 20
868.2145083753036
 30
0.0
 11
1727.328130390346
 21
868.2145083753036
 31
0.0
  0
LINE
  5
6F3
330
1F
100
AcDbEntity
  8
0
100
AcDbLine
 10
1727.328130390346
 20
864.2145083753044
 30
0.0
 11
1760.692235041628
 21
864.2145083753041
 31
0.0
  0
LINE
  5
6F4
330
1F
100
AcDbEntity
  8
0
100
AcDbLine
 10
1727.328130390346
 20
858.2145083753035
 30
0.0
 11
1760.692235041628
 21
858.2145083753035
 31
0.0
  0
LINE
  5
6F5
330
1F
100
AcDbEntity
  8
0
100
AcDbLine
 10
1727.328130390346
 20
854.2145083753036
 30
0.0
 11
1760.692235041628
 21
854.2145083753036
 31
0.0
  0
LINE
  5
6F6
330
1F
100
AcDbEntity
  8
0
100
AcDbLine
 10
1727.328130390346
 20
868.2145083753036
 30
0.0
 11
1727.328130390346
 21
864.2145083753035
 31
0.0
  0
ARC
  5
6F7
330
1F
100
AcDbEntity
  8
0
100
AcDbCircle
 10
1727.328130390346
 20
861.2145083753036
 30
0.0
 40
3.000000000000056
100
AcDbArc
 50
90.0
 51
270.0
  0
LINE
  5
6F8
330
1F
100
AcDbEntity
  8
0
100
AcDbLine
 10
1727.328130390346
 20
858.2145083753035
 30
0.0
 11
1727.328130390346
 21
854.2145083753036
 31
0.0
  0
POLYLINE
  5
6F9
330
1F
100
AcDbEntity
  8
0
  6
CONTINUOUS
100
AcDb2dPolyline
 66
     1
 10
0.0
 20
0.0
 30
0.0
  0
VERTEX
  5
10CD
330
6F9
100
AcDbEntity
  8
0
  6
CONTINUOUS
100
AcDbVertex
100
AcDb2dVertex
 10
1737.134301919227
 20
868.2145083753036
 30
0.0
 42
0.0406020746902253
  0
VERTEX
  5
10CE
330
6F9
100
AcDbEntity
  8
0
  6
CONTINUOUS
100
AcDbVertex
100
AcDb2dVertex
 10
1734.508623359434
 20
880.8566691020851
 30
0.0
  0
SEQEND
  5
10CF
330
6F9
100
AcDbEntity
  8
0
  6
CONTINUOUS
  0
POLYLINE
  5
6FA
330
1F
100
AcDbEntity
  8
0
  6
CONTINUOUS
100
AcDb2dPolyline
 66
     1
 10
0.0
 20
0.0
 30
0.0
  0
VERTEX
  5
10D0
330
6FA
100
AcDbEntity
  8
0
  6
CONTINUOUS
100
AcDbVertex
100
AcDb2dVertex
 10
1731.084353401261
 20
868.2145083753036
 30
0.0
 42
0.0363948171192986
  0
VERTEX
  5
10D1
330
6FA
100
AcDbEntity
  8
0
  6
CONTINUOUS
100
AcDbVertex
100
AcDb2dVertex
 10
1728.889256688765
 20
878.6924587700815
 30
0.0
  0
SEQEND
  5
10D2
330
6FA
100
AcDbEntity
  8
0
  6
CONTINUOUS
  0
LINE
  5
6FB
330
1F
100
AcDbEntity
  8
0
100
AcDbLine
 10
1760.692235041628
 20
868.2145083753036
 30
0.0
 11
1760.692235041628
 21
864.2145083753035
 31
0.0
  0
LINE
  5
6FC
330
1F
100
AcDbEntity
  8
0
100
AcDbLine
 10
1760.692235041628
 20
858.2145083753035
 30
0.0
 11
1760.692235041628
 21
854.2145083753036
 31
0.0
  0
ARC
  5
6FD
330
1F
100
AcDbEntity
  8
0
100
AcDbCircle
 10
1760.692235041628
 20
861.2145083753036
 30
0.0
 40
3.000000000000056
100
AcDbArc
 50
270.0
 51
90.0
  0
POLYLINE
  5
6FE
330
1F
100
AcDbEntity
  8
0
  6
CONTINUOUS
100
AcDb2dPolyline
 66
     1
 10
0.0
 20
0.0
 30
0.0
  0
VERTEX
  5
10D3
330
6FE
100
AcDbEntity
  8
0
  6
CONTINUOUS
100
AcDbVertex
100
AcDb2dVertex
 10
1750.886063512748
 20
868.2145083753036
 30
0.0
 42
-0.0406020746902253
  0
VERTEX
  5
10D4
330
6FE
100
AcDbEntity
  8
0
  6
CONTINUOUS
100
AcDbVertex
100
AcDb2dVertex
 10
1753.51174207254
 20
880.8566691020851
 30
0.0
  0
SEQEND
  5
10D5
330
6FE
100
AcDbEntity
  8
0
  6
CONTINUOUS
  0
POLYLINE
  5
6FF
330
1F
100
AcDbEntity
  8
0
  6
CONTINUOUS
100
AcDb2dPolyline
 66
     1
 10
0.0
 20
0.0
 30
0.0
  0
VERTEX
  5
10D6
330
6FF
100
AcDbEntity
  8
0
  6
CONTINUOUS
100
AcDbVertex
100
AcDb2dVertex
 10
1756.936012030714
 20
868.2145083753036
 30
0.0
 42
-0.0363948171192986
  0
VERTEX
  5
10D7
330
6FF
100
AcDbEntity
  8
0
  6
CONTINUOUS
100
AcDbVertex
100
AcDb2dVertex
 10
1759.131108743208
 20
878.6924587700815
 30
0.0
  0
SEQEND
  5
10D8
330
6FF
100
AcDbEntity
  8
0
  6
CONTINUOUS
  0
POLYLINE
  5
700
330
1F
100
AcDbEntity
  8
0
  6
CONTINUOUS
100
AcDb2dPolyline
 66
     1
 10
0.0
 20
0.0
 30
0.0
  0
VERTEX
  5
10D9
330
700
100
AcDbEntity
  8
0
  6
CONTINUOUS
100
AcDbVertex
100
AcDb2dVertex
 10
1677.475225573451
 20
901.6409857702962
 30
0.0
 42
-0.6244873880121949
  0
VERTEX
  5
10DA
330
700
100
AcDbEntity
  8
0
  6
CONTINUOUS
100
AcDbVertex
100
AcDb2dVertex
 10
1682.622453012055
 20
885.7900567654207
 30
0.0
 42
-0.5712699294635224
  0
VERTEX
  5
10DB
330
700
100
AcDbEntity
  8
0
  6
CONTINUOUS
100
AcDbVertex
100
AcDb2dVertex
 10
1652.419715861494
 20
894.2657205512023
 30
0.0
 42
-0.1992749000703595
  0
VERTEX
  5
10DC
330
700
100
AcDbEntity
  8
0
  6
CONTINUOUS
100
AcDbVertex
100
AcDb2dVertex
 10
1654.223938947017
 20
911.19288066202
 30
0.0
 42
-0.1922899288213652
  0
VERTEX
  5
10DD
330
700
100
AcDbEntity
  8
0
  6
CONTINUOUS
100
AcDbVertex
100
AcDb2dVertex
 10
1670.782264423922
 20
924.1811415104136
 30
0.0
 42
-0.1435180749715141
  0
VERTEX
  5
10DE
330
700
100
AcDbEntity
  8
0
  6
CONTINUOUS
100
AcDbVertex
100
AcDb2dVertex
 10
1693.352366507583
 20
924.0962766346321
 30
0.0
 42
-0.2013051193684176
  0
VERTEX
  5
10DF
330
700
100
AcDbEntity
  8
0
  6
CONTINUOUS
100
AcDbVertex
100
AcDb2dVertex
 10
1727.922294168481
 20
896.3091657987257
 30
0.0
 42
-0.0525451820212675
  0
VERTEX
  5
10E0
330
700
100
AcDbEntity
  8
0
  6
CONTINUOUS
100
AcDbVertex
100
AcDb2dVertex
 10
1734.508623359434
 20
880.8566691020851
 30
0.0
  0
SEQEND
  5
10E1
330
700
100
AcDbEntity
  8
0
  6
CONTINUOUS
  0
POLYLINE
  5
701
330
1F
100
AcDbEntity
  8
0
  6
CONTINUOUS
100
AcDb2dPolyline
 66
     1
 10
0.0
 20
0.0
 30
0.0
  0
VERTEX
  5
10E2
330
701
100
AcDbEntity
  8
0
  6
CONTINUOUS
100
AcDbVertex
100
AcDb2dVertex
 10
1677.475225573451
 20
901.6409857702962
 30
0.0
  0
VERTEX
  5
10E3
330
701
100
AcDbEntity
  8
0
  6
CONTINUOUS
100
AcDbVertex
100
AcDb2dVertex
 10
1677.647531851004
 20
899.9800124286135
 30
0.0
 42
-0.5016049534703276
  0
VERTEX
  5
10E4
330
701
100
AcDbEntity
  8
0
  6
CONTINUOUS
100
AcDbVertex
100
AcDb2dVertex
 10
1678.459868579174
 20
890.1113018349635
 30
0.0
 42
-0.5731451722580876
  0
VERTEX
  5
10E5
330
701
100
AcDbEntity
  8
0
  6
CONTINUOUS
100
AcDbVertex
100
AcDb2dVertex
 10
1658.198512545718
 20
895.8830126732957
 30
0.0
 42
-0.1994211041236551
  0
VERTEX
  5
10E6
330
701
100
AcDbEntity
  8
0
  6
CONTINUOUS
100
AcDbVertex
100
AcDb2dVertex
 10
1659.453979974446
 20
908.2509828896364
 30
0.0
 42
-0.1912321573076029
  0
VERTEX
  5
10E7
330
701
100
AcDbEntity
  8
0
  6
CONTINUOUS
100
AcDbVertex
100
AcDb2dVertex
 10
1672.459459961119
 20
918.4203099200809
 30
0.0
 42
-0.143630861908326
  0
VERTEX
  5
10E8
330
701
100
AcDbEntity
  8
0
  6
CONTINUOUS
100
AcDbVertex
100
AcDb2dVertex
 10
1691.669098017517
 20
918.3371568170064
 30
0.0
 42
-0.2016233873508618
  0
VERTEX
  5
10E9
330
701
100
AcDbEntity
  8
0
  6
CONTINUOUS
100
AcDbVertex
100
AcDb2dVertex
 10
1722.663329556099
 20
893.4204516295409
 30
0.0
 42
-0.0544492341104313
  0
VERTEX
  5
10EA
330
701
100
AcDbEntity
  8
0
  6
CONTINUOUS
100
AcDbVertex
100
AcDb2dVertex
 10
1728.889256688765
 20
878.6924587700815
 30
0.0
 42
-0.056122523359716
  0
SEQEND
  5
10EB
330
701
100
AcDbEntity
  8
0
  6
CONTINUOUS
  0
ARC
  5
702
330
1F
100
AcDbEntity
  8
0
  6
CONTINUOUS
100
AcDbCircle
 10
1707.967639957242
 20
977.6135420530218
 30
0.0
 40
19.6644356743196
100
AcDbArc
 50
131.716819306387
 51
228.2622202334297
  0
ARC
  5
703
330
1F
100
AcDbEntity
  8
0
  6
CONTINUOUS
100
AcDbCircle
 10
1709.061483797712
 20
976.4426932481562
 30
0.0
 40
14.79145401338622
100
AcDbArc
 50
132.3009873069365
 51
219.049926621495
  0
LINE
  5
704
330
1F
100
AcDbEntity
  8
0
100
AcDbLine
 10
1727.328130390346
 20
957.9587067175999
 30
0.0
 11
1760.692235041628
 21
957.9587067175999
 31
0.0
  0
LINE
  5
705
330
1F
100
AcDbEntity
  8
0
100
AcDbLine
 10
1727.328130390346
 20
961.9587067175999
 30
0.0
 11
1760.692235041628
 21
961.9587067175999
 31
0.0
  0
LINE
  5
706
330
1F
100
AcDbEntity
  8
0
100
AcDbLine
 10
1727.328130390346
 20
967.9587067176013
 30
0.0
 11
1760.692235041628
 21
967.9587067176008
 31
0.0
  0
LINE
  5
707
330
1F
100
AcDbEntity
  8
0
100
AcDbLine
 10
1760.692235041628
 20
971.9587067176004
 30
0.0
 11
1727.328130390346
 21
971.9587067176004
 31
0.0
  0
ARC
  5
708
330
1F
100
AcDbEntity
  8
0
  6
CONTINUOUS
100
AcDbCircle
 10
1695.031815832257
 20
965.0281598002662
 30
0.0
 40
36.97836688373008
100
AcDbArc
 50
336.3241931827936
 51
348.9784565766229
  0
ARC
  5
709
330
1F
100
AcDbEntity
  8
0
  6
CONTINUOUS
100
AcDbCircle
 10
1695.031815832257
 20
965.0281598002662
 30
0.0
 40
42.97836688373009
100
AcDbArc
 50
336.3241931827936
 51
350.5324702247469
  0
ARC
  5
70A
330
1F
100
AcDbEntity
  8
0
100
AcDbCircle
 10
1727.328130390346
 20
964.9587067176
 30
0.0
 40
3.000000000000056
100
AcDbArc
 50
90.0
 51
270.0
  0
LINE
  5
70B
330
1F
100
AcDbEntity
  8
0
  6
CONTINUOUS
100
AcDbLine
 10
1712.290244214139
 20
964.7656696528303
 30
0.0
 11
1713.598273745041
 21
963.0428474765301
 31
0.0
  0
LINE
  5
70C
330
1F
100
AcDbEntity
  8
0
100
AcDbLine
 10
1727.328130390346
 20
971.9587067176004
 30
0.0
 11
1727.328130390346
 21
967.9587067175999
 31
0.0
  0
LINE
  5
70D
330
1F
100
AcDbEntity
  8
0
100
AcDbLine
 10
1727.328130390346
 20
961.9587067175999
 30
0.0
 11
1727.328130390346
 21
957.9587067175999
 31
0.0
  0
ARC
  5
70E
330
1F
100
AcDbEntity
  8
0
  6
CONTINUOUS
100
AcDbCircle
 10
1792.988549599717
 20
965.0281598002662
 30
0.0
 40
42.97836688373009
100
AcDbArc
 50
189.467529775253
 51
203.6758068172063
  0
ARC
  5
70F
330
1F
100
AcDbEntity
  8
0
  6
CONTINUOUS
100
AcDbCircle
 10
1792.988549599717
 20
965.0281598002662
 30
0.0
 40
36.97836688373008
100
AcDbArc
 50
191.021543423377
 51
203.6758068172063
  0
ARC
  5
710
330
1F
100
AcDbEntity
  8
0
100
AcDbCircle
 10
1760.692235041628
 20
964.9587067176
 30
0.0
 40
3.000000000000056
100
AcDbArc
 50
270.0
 51
90.0
  0
LINE
  5
711
330
1F
100
AcDbEntity
  8
0
100
AcDbLine
 10
1760.692235041628
 20
971.9587067176004
 30
0.0
 11
1760.692235041628
 21
967.9587067175999
 31
0.0
  0
LINE
  5
712
330
1F
100
AcDbEntity
  8
0
100
AcDbLine
 10
1760.692235041628
 20
961.9587067175999
 30
0.0
 11
1760.692235041628
 21
957.9587067175999
 31
0.0
  0
ARC
  5
713
330
1F
100
AcDbEntity
  8
0
  6
CONTINUOUS
100
AcDbCircle
 10
1695.031815832257
 20
965.0281598002662
 30
0.0
 40
42.97836688373009
100
AcDbArc
 50
9.279843458626253
 51
26.34349293023964
  0
ARC
  5
714
330
1F
100
AcDbEntity
  8
0
  6
CONTINUOUS
100
AcDbCircle
 10
1695.031815832257
 20
965.0281598002662
 30
0.0
 40
36.97836688373008
100
AcDbArc
 50
10.80235333346608
 51
26.34349293023964
  0
ARC
  5
715
330
1F
100
AcDbEntity
  8
0
  6
CONTINUOUS
100
AcDbCircle
 10
1792.988549599717
 20
965.0281598002662
 30
0.0
 40
42.97836688373009
100
AcDbArc
 50
153.6565070697603
 51
170.7201565413737
  0
ARC
  5
716
330
1F
100
AcDbEntity
  8
0
  6
CONTINUOUS
100
AcDbCircle
 10
1792.988549599717
 20
965.0281598002662
 30
0.0
 40
36.97836688373008
100
AcDbArc
 50
153.6565070697603
 51
169.1976466665338
  0
ARC
  5
717
330
1F
100
AcDbEntity
  8
0
  6
CONTINUOUS
100
AcDbCircle
 10
1710.592114812615
 20
971.0993279200135
 30
0.0
 40
26.38058376875362
100
AcDbArc
 50
29.52527956289985
 51
126.5497067148896
  0
ARC
  5
718
330
1F
100
AcDbEntity
  8
0
  6
CONTINUOUS
100
AcDbCircle
 10
1711.039298722393
 20
971.7054333663178
 30
0.0
 40
19.7020449873939
100
AcDbArc
 50
29.60090417235141
 51
127.2767026925461
  0
ARC
  5
719
330
1F
100
AcDbEntity
  8
0
  6
CONTINUOUS
100
AcDbCircle
 10
1706.20987622608
 20
973.9160670617744
 30
0.0
 40
10.98638464699961
100
AcDbArc
 50
218.1859196082446
 51
303.6037291032408
  0
ARC
  5
71A
330
1F
100
AcDbEntity
  8
0
  6
CONTINUOUS
100
AcDbCircle
 10
1704.185521623071
 20
972.435713115076
 30
0.0
 40
13.29758727790373
100
AcDbArc
 50
225.5692043137184
 51
315.0605888708325
  0
ARC
  5
71B
330
1F
100
AcDbEntity
  8
0
  6
CONTINUOUS
100
AcDbCircle
 10
1791.285545452642
 20
968.7705605421884
 30
0.0
 40
38.35657218847958
100
AcDbArc
 50
269.6877094220554
 51
28.15496996003036
  0
ARC
  5
71C
330
1F
100
AcDbEntity
  8
0
  6
CONTINUOUS
100
AcDbCircle
 10
1791.285545452642
 20
968.7705605421884
 30
0.0
 40
44.35657218847958
100
AcDbArc
 50
269.744158379718
 51
28.12809001184518
  0
ARC
  5
71D
330
1F
100
AcDbEntity
  8
0
  6
CONTINUOUS
100
AcDbCircle
 10
1781.810489205895
 20
973.9160670617744
 30
0.0
 40
10.98638464699961
100
AcDbArc
 50
236.3962708967591
 51
321.8140803917553
  0
ARC
  5
71E
330
1F
100
AcDbEntity
  8
0
  6
CONTINUOUS
100
AcDbCircle
 10
1783.834843808902
 20
972.435713115076
 30
0.0
 40
13.29758727790373
100
AcDbArc
 50
224.9394111291674
 51
314.4307956862815
  0
LINE
  5
71F
330
1F
100
AcDbEntity
  8
0
  6
CONTINUOUS
100
AcDbLine
 10
1775.730121217836
 20
964.7656696528303
 30
0.0
 11
1774.422091686931
 21
963.0428474765301
 31
0.0
  0
ARC
  5
720
330
1F
100
AcDbEntity
  8
0
  6
CONTINUOUS
100
AcDbCircle
 10
1780.052725474733
 20
977.6135420530218
 30
0.0
 40
19.6644356743196
100
AcDbArc
 50
311.7377797665702
 51
48.283180693613
  0
ARC
  5
721
330
1F
100
AcDbEntity
  8
0
  6
CONTINUOUS
100
AcDbCircle
 10
1778.958881634262
 20
976.4426932481562
 30
0.0
 40
14.79145401338622
100
AcDbArc
 50
320.9500733785048
 51
47.69901269306344
  0
LINE
  5
722
330
1F
100
AcDbEntity
  8
0
100
AcDbLine
 10
2153.260182715999
 20
377.6282204125847
 30
0.0
 11
2153.260182715999
 21
317.5178897754714
 31
0.0
  0
LINE
  5
723
330
1F
100
AcDbEntity
  8
0
100
AcDbLine
 10
2203.260182715989
 20
377.6282204125842
 30
0.0
 11
2203.260182715989
 21
253.4532425118332
 31
0.0
  0
LINE
  5
724
330
1F
100
AcDbEntity
  8
0
100
AcDbLine
 10
2203.260182715993
 20
377.6282204125847
 30
0.0
 11
2203.260182715993
 21
317.5178897754714
 31
0.0
  0
LINE
  5
725
330
1F
100
AcDbEntity
  8
0
100
AcDbLine
 10
2153.260182715999
 20
377.6282204125847
 30
0.0
 11
2153.260182715999
 21
317.5178897754714
 31
0.0
  0
INSERT
  5
726
330
1F
100
AcDbEntity
  8
0
100
AcDbBlockReference
  2
_DOTSMALL
 10
2203.260182715989
 20
253.4532425118332
 30
0.0
 41
25.0
 42
25.0
 43
25.0
  0
MTEXT
  5
727
330
1F
100
AcDbEntity
  8
0
 62
   255
100
AcDbMText
 10
2178.260182715996
 20
337.7960354708358
 30
0.0
 40
30.0
 41
0.0
 71
     5
 72
     1
  1
50
  7
ｽﾀｲﾙ2
1001
ACAD
1000
MTEXTBEGIN
1070
    73
1070
     1
1070
    44
1040
1.0
1070
    74
1070
     0
1000
MTEXTEND
  0
LINE
  5
728
330
1F
100
AcDbEntity
  8
0
100
AcDbLine
 10
2153.260182715999
 20
317.5178897754714
 30
0.0
 11
2203.260182715993
 21
317.5178897754714
 31
0.0
  0
INSERT
  5
729
330
1F
100
AcDbEntity
  8
0
100
AcDbBlockReference
  2
_DOTSMALL
 10
2153.260182715999
 20
317.5178897754714
 30
0.0
 41
25.0
 42
25.0
 43
25.0
  0
INSERT
  5
72A
330
1F
100
AcDbEntity
  8
0
100
AcDbBlockReference
  2
_DOTSMALL
 10
2153.260182715999
 20
317.5178897754714
 30
0.0
 41
25.0
 42
25.0
 43
25.0
 50
180.0
  0
INSERT
  5
72B
330
1F
100
AcDbEntity
  8
0
100
AcDbBlockReference
  2
_DOTSMALL
 10
2203.260182715993
 20
317.5178897754714
 30
0.0
 41
25.0
 42
25.0
 43
25.0
  0
ARC
  5
72C
330
1F
100
AcDbEntity
  8
0
100
AcDbCircle
 10
2063.015741601319
 20
679.1713055066208
 30
0.0
 40
59.25027723911768
100
AcDbArc
 50
338.8106919803585
 51
21.18930801964145
  0
LINE
  5
72D
330
1F
100
AcDbEntity
  8
0
  6
CONTINUOUS
 62
     7
100
AcDbLine
 10
2139.56018271599
 20
735.6282204125861
 30
0.0
 11
2139.56018271599
 21
661.6282204125861
 31
0.0
  0
LINE
  5
72E
330
1F
100
AcDbEntity
  8
0
  6
CONTINUOUS
 62
     7
100
AcDbLine
 10
2159.56018271599
 20
735.6282204125861
 30
0.0
 11
2159.56018271599
 21
661.6282204125861
 31
0.0
  0
ARC
  5
72F
330
1F
100
AcDbEntity
  8
0
100
AcDbCircle
 10
2112.780840551252
 20
577.2098199081552
 30
0.0
 40
47.3092865871033
100
AcDbArc
 50
236.7886702846587
 51
303.2113297153411
  0
LINE
  5
730
330
1F
100
AcDbEntity
  8
0
100
AcDbLine
 10
2148.260182715982
 20
582.6282204125861
 30
0.0
 11
2148.260182715982
 21
507.6282204125852
 31
0.0
  0
LINE
  5
731
330
1F
100
AcDbEntity
  8
0
100
AcDbLine
 10
2153.260182715995
 20
582.6282204125852
 30
0.0
 11
2153.260182715995
 21
427.6282204125847
 31
0.0
  0
LINE
  5
732
330
1F
100
AcDbEntity
  8
0
100
AcDbLine
 10
2294.558946456621
 20
427.6282204125847
 30
0.0
 11
2372.553152117433
 21
427.6282204125847
 31
0.0
  0
LINE
  5
733
330
1F
100
AcDbEntity
  8
0
100
AcDbLine
 10
2253.260182715989
 20
507.6282204125852
 30
0.0
 11
2372.553152117433
 21
507.6282204125852
 31
0.0
  0
LINE
  5
734
330
1F
100
AcDbEntity
  8
0
100
AcDbLine
 10
2294.558946456621
 20
427.6282204125847
 30
0.0
 11
2454.663293188438
 21
427.6282204125847
 31
0.0
  0
LINE
  5
735
330
1F
100
AcDbEntity
  8
0
100
AcDbLine
 10
2253.260182715989
 20
507.6282204125852
 30
0.0
 11
2372.553152117433
 21
507.6282204125852
 31
0.0
  0
INSERT
  5
736
330
1F
100
AcDbEntity
  8
0
  6
CONTINUOUS
100
AcDbBlockReference
  2
*X3
 10
0.0
 20
0.0
 30
0.0
1001
ACAD
1000
HATCH
1002
{
1070
    19
1000
ANSI31
1040
1.5
1040
0.0
1000
ASC_BOUNDS
1070
     1
1070
     1
1070
     3
1005
738
1005
742
1005
737
1000
ASC_SEEDPOINT
1011
2238.149175823978
1021
456.4704838796161
1031
0.0
1000
R14_HATCH_DATA
1000
736
1011
1.0
1021
0.0
1031
0.0
1011
0.0
1021
1.0
1031
0.0
1011
0.0
1021
0.0
1031
1.0
1040
0.0
1010
0.0
1020
0.0
1030
1.0
1000
ANSI31
1070
     0
1070
     1
1071
        1
1071
        7
1070
     0
1070
     1
1071
        3
1040
2223.312224824613
1040
464.4286217734904
1040
2244.558946456621
1040
427.6282204125847
1040
2265.805668088624
1040
464.4286217734912
1071
        3
1005
737
1005
742
1005
738
1070
     0
1070
     1
1040
0.0
1040
1.5
1070
     0
1070
     1
1040
5.497787143782137
1040
-56062.76773046413
1040
21778.79289604653
1040
-3.367596045400931
1040
-3.367596045400932
1070
     0
1040
0.0587250622807417
1071
        1
1040
2238.149175823978
1040
456.4704838796161
1040
0.0
1002
}
  0
LINE
  5
737
330
1F
100
AcDbEntity
  8
0
100
AcDbLine
 10
2223.312224824613
 20
464.4286217734908
 30
0.0
 11
2244.558946456621
 21
427.6282204125847
 31
0.0
1001
ACAD
1000
ASC_BOUNDS
1002
{
1070
    19
1005
736
1002
}
  0
LINE
  5
738
330
1F
100
AcDbEntity
  8
0
100
AcDbLine
 10
2265.805668088624
 20
464.4286217734908
 30
0.0
 11
2244.558946456621
 21
427.6282204125847
 31
0.0
1001
ACAD
1000
ASC_BOUNDS
1002
{
1070
    19
1005
736
1002
}
  0
LINE
  5
739
330
1F
100
AcDbEntity
  8
0
100
AcDbLine
 10
2153.260182715999
 20
427.6282204125847
 30
0.0
 11
2203.260182715993
 21
427.6282204125847
 31
0.0
  0
LINE
  5
73A
330
1F
100
AcDbEntity
  8
0
100
AcDbLine
 10
2135.14860947918
 20
509.3762111568026
 30
0.0
 11
2132.806091262348
 21
527.1249580046675
 31
0.0
  0
LINE
  5
73B
330
1F
100
AcDbEntity
  8
0
100
AcDbLine
 10
2131.467499614443
 20
526.455182601952
 30
0.0
 11
2131.802153248755
 21
509.3762111568026
 31
0.0
  0
LINE
  5
73C
330
1F
100
AcDbEntity
  8
0
100
AcDbLine
 10
2042.378939152532
 20
533.0810270939506
 30
0.0
 11
2041.391962141847
 21
514.6445225995154
 31
0.0
  0
LINE
  5
73D
330
1F
100
AcDbEntity
  8
0
100
AcDbLine
 10
2039.418008120476
 20
512.669197412451
 30
0.0
 11
2039.418008120476
 21
533.0810270939506
 31
0.0
  0
LINE
  5
73E
330
1F
100
AcDbEntity
  8
0
100
AcDbLine
 10
2068.406456466165
 20
533.4099174739782
 30
0.0
 11
2068.077467944161
 21
512.6688669279716
 31
0.0
  0
LINE
  5
73F
330
1F
100
AcDbEntity
  8
0
100
AcDbLine
 10
2067.090490933475
 20
513.3273086569894
 30
0.0
 11
2066.103513922787
 21
532.7514757449567
 31
0.0
  0
ARC
  5
740
330
1F
100
AcDbEntity
  8
0
100
AcDbCircle
 10
2068.362886602419
 20
459.9139580512961
 30
0.0
 40
51.17711403260225
100
AcDbArc
 50
68.80192224697278
 51
111.1980777530272
  0
TEXT
  5
741
330
1F
100
AcDbEntity
  8
0
100
AcDbText
 10
2228.466662737874
 20
475.5524320244732
 30
0.0
 40
25.0
  1
GL
  7
MS-G
100
AcDbText
  0
LINE
  5
742
330
1F
100
AcDbEntity
  8
0
100
AcDbLine
 10
2223.312224824613
 20
464.4286217734908
 30
0.0
 11
2265.805668088624
 21
464.4286217734908
 31
0.0
1001
ACAD
1000
ASC_BOUNDS
1002
{
1070
    19
1005
736
1002
}
  0
MTEXT
  5
743
330
1F
100
AcDbEntity
  8
0
 62
   255
100
AcDbMText
 10
2352.27500642207
 20
467.6282204125874
 30
0.0
 40
30.0
 41
0.0
 71
     5
 72
     1
  1
80
  7
ｽﾀｲﾙ2
 11
0.0000000000000001
 21
1.0
 31
0.0
1001
ACAD
1000
MTEXTBEGIN
1070
    73
1070
     1
1070
    44
1040
1.0
1070
    74
1070
     0
1000
MTEXTEND
  0
LINE
  5
744
330
1F
100
AcDbEntity
  8
0
100
AcDbLine
 10
2372.553152117433
 20
507.6282204125852
 30
0.0
 11
2372.553152117433
 21
427.6282204125847
 31
0.0
  0
INSERT
  5
745
330
1F
100
AcDbEntity
  8
0
100
AcDbBlockReference
  2
_DOTSMALL
 10
2372.553152117433
 20
427.6282204125847
 30
0.0
 41
25.0
 42
25.0
 43
25.0
 50
270.0
  0
INSERT
  5
746
330
1F
100
AcDbEntity
  8
0
100
AcDbBlockReference
  2
_DOTSMALL
 10
2454.663293188438
 20
427.6282204125847
 30
0.0
 41
25.0
 42
25.0
 43
25.0
 50
270.0
  0
INSERT
  5
747
330
1F
100
AcDbEntity
  8
0
100
AcDbBlockReference
  2
_DOTSMALL
 10
2372.553152117433
 20
507.6282204125852
 30
0.0
 41
25.0
 42
25.0
 43
25.0
 50
90.0
  0
INSERT
  5
748
330
1F
100
AcDbEntity
  8
0
100
AcDbBlockReference
  2
_DOTSMALL
 10
2372.553152117433
 20
507.6282204125852
 30
0.0
 41
25.0
 42
25.0
 43
25.0
 50
270.0
  0
ARC
  5
749
330
1F
100
AcDbEntity
  8
0
100
AcDbCircle
 10
2016.282423223005
 20
603.1310837759462
 30
0.0
 40
106.6116003211486
100
AcDbArc
 50
343.0452386242168
 51
16.9547613757832
  0
LINE
  5
74A
330
1F
100
AcDbEntity
  8
0
  6
CONTINUOUS
 62
     7
100
AcDbLine
 10
2139.56018271599
 20
658.628220412586
 30
0.0
 11
2139.56018271599
 21
584.628220412586
 31
0.0
  0
LINE
  5
74B
330
1F
100
AcDbEntity
  8
0
  6
CONTINUOUS
 62
     7
100
AcDbLine
 10
2159.56018271599
 20
584.628220412586
 30
0.0
 11
2159.56018271599
 21
658.628220412586
 31
0.0
  0
LINE
  5
74C
330
1F
100
AcDbEntity
  8
0
  6
CONTINUOUS
 62
     7
100
AcDbLine
 10
2139.560182715988
 20
584.628220412586
 30
0.0
 11
2159.56018271599
 21
584.628220412586
 31
0.0
  0
ARC
  5
74D
330
1F
100
AcDbEntity
  8
0
100
AcDbCircle
 10
2171.497260462002
 20
557.3857825687888
 30
0.0
 40
27.47268131795497
100
AcDbArc
 50
147.7604243756004
 51
212.2395756243995
  0
LINE
  5
74E
330
1F
100
AcDbEntity
  8
0
100
AcDbLine
 10
2127.740401250572
 20
575.9616343241792
 30
0.0
 11
2145.679779323557
 21
576.4333951210042
 31
0.0
  0
LINE
  5
74F
330
1F
100
AcDbEntity
  8
0
100
AcDbLine
 10
2146.623954047355
 20
575.0181241751976
 30
0.0
 11
2129.628750698172
 21
573.6028532293909
 31
0.0
  0
LINE
  5
750
330
1F
100
AcDbEntity
  8
0
  6
CONTINUOUS
 62
     7
100
AcDbLine
 10
2141.56018271599
 20
584.628220412586
 30
0.0
 11
2157.56018271599
 21
584.628220412586
 31
0.0
  0
LINE
  5
751
330
1F
100
AcDbEntity
  8
0
  6
CONTINUOUS
 62
     7
100
AcDbLine
 10
2140.560182715991
 20
582.6282204125861
 30
0.0
 11
2158.56018271599
 21
582.6282204125861
 31
0.0
  0
ARC
  5
752
330
1F
100
AcDbEntity
  8
0
100
AcDbCircle
 10
2079.334946868498
 20
557.3857825687888
 30
0.0
 40
41.59279291423044
100
AcDbArc
 50
339.3683311470979
 51
20.63166885290214
  0
LINE
  5
753
330
1F
100
AcDbEntity
  8
0
100
AcDbLine
 10
2123.255882356742
 20
554.0372720198607
 30
0.0
 11
2140.986958004972
 21
554.0372720198607
 31
0.0
  0
ARC
  5
754
330
1F
100
AcDbEntity
  8
0
  6
CONTINUOUS
 62
     7
100
AcDbCircle
 10
2140.560182715991
 20
584.128220412586
 30
0.0
 40
0.5
100
AcDbArc
 50
90.0
 51
180.0
  0
LINE
  5
755
330
1F
100
AcDbEntity
  8
0
  6
CONTINUOUS
 62
     7
100
AcDbLine
 10
2140.06018271599
 20
584.128220412586
 30
0.0
 11
2140.06018271599
 21
583.128220412586
 31
0.0
  0
ARC
  5
756
330
1F
100
AcDbEntity
  8
0
  6
CONTINUOUS
 62
     7
100
AcDbCircle
 10
2140.560182715991
 20
583.128220412586
 30
0.0
 40
0.5
100
AcDbArc
 50
180.0
 51
270.0
  0
LINE
  5
757
330
1F
100
AcDbEntity
  8
0
100
AcDbLine
 10
2124.644150462821
 20
601.4323798223573
 30
0.0
 11
2139.56018271599
 21
601.0295295444426
 31
0.0
  0
LINE
  5
758
330
1F
100
AcDbEntity
  8
0
100
AcDbLine
 10
2139.56018271599
 20
603.6185684203416
 30
0.0
 11
2124.644150462821
 21
606.2489613082667
 31
0.0
  0
ARC
  5
759
330
1F
100
AcDbEntity
  8
0
  6
CONTINUOUS
 62
     7
100
AcDbCircle
 10
2158.56018271599
 20
584.128220412586
 30
0.0
 40
0.5
100
AcDbArc
 50
0.0
 51
90.0
  0
ARC
  5
75A
330
1F
100
AcDbEntity
  8
0
  6
CONTINUOUS
 62
     7
100
AcDbCircle
 10
2158.56018271599
 20
583.128220412586
 30
0.0
 40
0.5
100
AcDbArc
 50
270.0
 51
0.0
  0
LINE
  5
75B
330
1F
100
AcDbEntity
  8
0
  6
CONTINUOUS
 62
     7
100
AcDbLine
 10
2159.06018271599
 20
583.128220412586
 30
0.0
 11
2159.06018271599
 21
584.128220412586
 31
0.0
  0
ARC
  5
75C
330
1F
100
AcDbEntity
  8
0
100
AcDbCircle
 10
2068.362886602419
 20
609.531812610559
 30
0.0
 40
74.24670187285427
100
AcDbArc
 50
255.5674138149335
 51
284.4325861850664
  0
LINE
  5
75D
330
1F
100
AcDbEntity
  8
0
  6
CONTINUOUS
 62
     7
100
AcDbLine
 10
2159.56018271599
 20
658.628220412586
 30
0.0
 11
2139.560182715992
 21
658.6282204125869
 31
0.0
  0
LINE
  5
75E
330
1F
100
AcDbEntity
  8
0
  6
CONTINUOUS
 62
     7
100
AcDbLine
 10
2139.56018271599
 20
661.6282204125861
 30
0.0
 11
2159.56018271599
 21
661.6282204125861
 31
0.0
  0
LINE
  5
75F
330
1F
100
AcDbEntity
  8
0
  6
CONTINUOUS
 62
     7
100
AcDbLine
 10
2140.06018271599
 20
661.6282204125861
 30
0.0
 11
2140.06018271599
 21
658.628220412586
 31
0.0
  0
LINE
  5
760
330
1F
100
AcDbEntity
  8
0
100
AcDbLine
 10
2122.870304167981
 20
647.5623364328618
 30
0.0
 11
2139.56018271599
 21
647.5623364328618
 31
0.0
  0
LINE
  5
761
330
1F
100
AcDbEntity
  8
0
100
AcDbLine
 10
2139.56018271599
 20
644.9699581916953
 30
0.0
 11
2120.531329409526
 21
645.6145563748174
 31
0.0
  0
LINE
  5
762
330
1F
100
AcDbEntity
  8
0
  6
CONTINUOUS
 62
     7
100
AcDbLine
 10
2159.06018271599
 20
661.6282204125861
 30
0.0
 11
2159.06018271599
 21
658.628220412586
 31
0.0
  0
LINE
  5
763
330
1F
100
AcDbEntity
  8
0
100
AcDbLine
 10
2123.747273900423
 20
675.6263643413473
 30
0.0
 11
2139.56018271599
 21
679.7847279973208
 31
0.0
  0
LINE
  5
764
330
1F
100
AcDbEntity
  8
0
100
AcDbLine
 10
2139.560182715988
 20
681.1552953672323
 30
0.0
 11
2124.532796632768
 21
680.3362013777765
 31
0.0
  0
LINE
  5
765
330
1F
100
AcDbEntity
  8
0
  6
CONTINUOUS
 62
     7
100
AcDbLine
 10
2139.560182715988
 20
735.6282204125861
 30
0.0
 11
2159.56018271599
 21
735.6282204125861
 31
0.0
  0
LINE
  5
766
330
1F
100
AcDbEntity
  8
0
  6
CONTINUOUS
 62
     7
100
AcDbLine
 10
2140.560182715991
 20
737.628220412586
 30
0.0
 11
2158.56018271599
 21
737.628220412586
 31
0.0
  0
ARC
  5
767
330
1F
100
AcDbEntity
  8
0
100
AcDbCircle
 10
2176.675892523696
 20
741.211101059144
 30
0.0
 40
30.75581818224811
100
AcDbArc
 50
157.5050578834445
 51
186.6898273747724
  0
LINE
  5
768
330
1F
100
AcDbEntity
  8
0
100
AcDbLine
 10
2122.870304167981
 20
742.785412880066
 30
0.0
 11
2144.310951481104
 21
742.785412880066
 31
0.0
  0
LINE
  5
769
330
1F
100
AcDbEntity
  8
0
100
AcDbLine
 10
2143.531299708375
 20
740.0585139320006
 30
0.0
 11
2120.531329409526
 21
740.8376328220216
 31
0.0
  0
ARC
  5
76A
330
1F
100
AcDbEntity
  8
0
100
AcDbCircle
 10
2101.28374463465
 20
708.7355524338451
 30
0.0
 40
18.83062952425546
100
AcDbArc
 50
334.3603398614806
 51
25.63966013851934
  0
ARC
  5
76B
330
1F
100
AcDbEntity
  8
0
  6
CONTINUOUS
 62
     7
100
AcDbCircle
 10
2140.560182715991
 20
736.1282204125861
 30
0.0
 40
0.5
100
AcDbArc
 50
180.0
 51
270.0
  0
ARC
  5
76C
330
1F
100
AcDbEntity
  8
0
  6
CONTINUOUS
 62
     7
100
AcDbCircle
 10
2140.560182715991
 20
737.128220412586
 30
0.0
 40
0.5
100
AcDbArc
 50
90.0
 51
180.0
  0
LINE
  5
76D
330
1F
100
AcDbEntity
  8
0
  6
CONTINUOUS
 62
     7
100
AcDbLine
 10
2140.06018271599
 20
737.128220412586
 30
0.0
 11
2140.06018271599
 21
736.1282204125861
 31
0.0
  0
LINE
  5
76E
330
1F
100
AcDbEntity
  8
0
100
AcDbLine
 10
2122.198098732312
 20
707.0522186738505
 30
0.0
 11
2139.56018271599
 21
709.3655400401072
 31
0.0
  0
LINE
  5
76F
330
1F
100
AcDbEntity
  8
0
100
AcDbLine
 10
2139.56018271599
 20
706.8167432828401
 30
0.0
 11
2121.704296595941
 21
705.5718618821989
 31
0.0
  0
ARC
  5
770
330
1F
100
AcDbEntity
  8
0
  6
CONTINUOUS
 62
     7
100
AcDbCircle
 10
2158.56018271599
 20
736.1282204125861
 30
0.0
 40
0.5
100
AcDbArc
 50
270.0
 51
0.0
  0
ARC
  5
771
330
1F
100
AcDbEntity
  8
0
  6
CONTINUOUS
 62
     7
100
AcDbCircle
 10
2158.56018271599
 20
737.128220412586
 30
0.0
 40
0.5
100
AcDbArc
 50
0.0
 51
90.0
  0
LINE
  5
772
330
1F
100
AcDbEntity
  8
0
  6
CONTINUOUS
 62
     7
100
AcDbLine
 10
2159.06018271599
 20
737.128220412586
 30
0.0
 11
2159.06018271599
 21
736.1282204125861
 31
0.0
  0
ARC
  5
773
330
1F
100
AcDbEntity
  8
0
100
AcDbCircle
 10
2016.282423223005
 20
815.6606204328724
 30
0.0
 40
106.6116003211486
100
AcDbArc
 50
343.0452386242168
 51
16.9547613757832
  0
LINE
  5
774
330
1F
100
AcDbEntity
  8
0
100
AcDbLine
 10
2124.644150462821
 20
813.9619164792835
 30
0.0
 11
2146.936534046203
 21
813.3598466547134
 31
0.0
  0
LINE
  5
775
330
1F
100
AcDbEntity
  8
0
100
AcDbLine
 10
2145.129036655024
 20
815.1660561284257
 30
0.0
 11
2124.644150462821
 21
818.7784979651929
 31
0.0
  0
ARC
  5
776
330
1F
100
AcDbEntity
  8
0
100
AcDbCircle
 10
2078.678583220415
 20
940.7241144048017
 30
0.0
 40
47.3092865871033
100
AcDbArc
 50
326.7886702846587
 51
33.21132971534122
  0
LINE
  5
777
330
1F
100
AcDbEntity
  8
0
100
AcDbLine
 10
2122.80737603462
 20
870.3222130060837
 30
0.0
 11
2141.243880529056
 21
869.3352359953966
 31
0.0
  0
LINE
  5
778
330
1F
100
AcDbEntity
  8
0
100
AcDbLine
 10
2143.21920571612
 20
867.3612819740261
 30
0.0
 11
2122.80737603462
 21
867.3612819740261
 31
0.0
  0
LINE
  5
779
330
1F
100
AcDbEntity
  8
0
100
AcDbLine
 10
2122.478485654593
 20
896.349730319716
 30
0.0
 11
2143.219536200599
 21
896.0207417977104
 31
0.0
  0
LINE
  5
77A
330
1F
100
AcDbEntity
  8
0
100
AcDbLine
 10
2142.561094471581
 20
895.0337647870252
 30
0.0
 11
2123.136927383614
 21
894.0467877763381
 31
0.0
  0
ARC
  5
77B
330
1F
100
AcDbEntity
  8
0
100
AcDbCircle
 10
2195.974445077275
 20
896.3061604559694
 30
0.0
 40
51.17711403260225
100
AcDbArc
 50
158.8019222469722
 51
201.1980777530278
  0
ARC
  5
77C
330
1F
100
AcDbEntity
  8
0
100
AcDbCircle
 10
2046.356590518012
 20
896.3061604559694
 30
0.0
 40
74.24670187285427
100
AcDbArc
 50
345.5674138149892
 51
14.43258618501076
  0
LINE
  5
77D
330
1F
100
AcDbEntity
  8
0
100
AcDbLine
 10
2146.512191971768
 20
963.0918833327301
 30
0.0
 11
2128.763445123903
 21
960.7493651158998
 31
0.0
  0
LINE
  5
77E
330
1F
100
AcDbEntity
  8
0
100
AcDbLine
 10
2129.433220526619
 20
959.4107734679925
 30
0.0
 11
2146.512191971768
 21
959.745427102305
 31
0.0
  0
LINE
  5
77F
330
1F
100
AcDbEntity
  8
0
100
AcDbLine
 10
2123.025690195144
 20
993.0518126041276
 30
0.0
 11
2142.381330353827
 21
994.4670835499342
 31
0.0
  0
ARC
  5
780
330
1F
100
AcDbEntity
  8
0
100
AcDbCircle
 10
2065.388889561826
 20
988.2534968136594
 30
0.0
 40
57.11966942967778
100
AcDbArc
 50
337.7625217859816
 51
22.23747821401841
  0
ARC
  5
781
330
1F
100
AcDbEntity
  8
0
  6
CONTINUOUS
100
AcDbCircle
 10
1934.385182715978
 20
2271.881120718934
 30
0.0
 40
525.4999999999999
100
AcDbArc
 50
240.4310796413485
 51
290.4814955819785
  0
ARC
  5
782
330
1F
100
AcDbEntity
  8
0
  6
CONTINUOUS
100
AcDbCircle
 10
1934.385182715978
 20
2271.881120718934
 30
0.0
 40
495.5
100
AcDbArc
 50
240.5424843793441
 51
291.7828442874612
  0
LINE
  5
783
330
1F
100
AcDbEntity
  8
0
100
AcDbLine
 10
2025.049650774143
 20
2212.628220412584
 30
0.0
 11
2454.663293188438
 21
2212.628220412584
 31
0.0
  0
ARC
  5
784
330
1F
100
AcDbEntity
  8
0
100
AcDbCircle
 10
1232.856590518001
 20
1660.508493211453
 30
0.0
 40
74.24670187285427
100
AcDbArc
 50
345.5674138149892
 51
14.43258618501076
  0
ARC
  5
785
330
1F
100
AcDbEntity
  8
0
100
AcDbCircle
 10
1267.856590518001
 20
1660.508493211453
 30
0.0
 40
74.24670187285427
100
AcDbArc
 50
345.5674138149892
 51
14.43258618501076
  0
ARC
  5
786
330
1F
100
AcDbEntity
  8
0
100
AcDbCircle
 10
1382.474445077264
 20
1660.508493211453
 30
0.0
 40
51.17711403260225
100
AcDbArc
 50
158.8019222469722
 51
201.1980777530278
  0
ARC
  5
787
330
1F
100
AcDbEntity
  8
0
100
AcDbCircle
 10
1417.474445077264
 20
1660.508493211453
 30
0.0
 40
51.17711403260225
100
AcDbArc
 50
158.8019222469722
 51
201.1980777530278
  0
ARC
  5
788
330
1F
100
AcDbEntity
  8
0
100
AcDbCircle
 10
504.2738945286971
 20
1654.35576769722
 30
0.0
 40
26.16757325024626
100
AcDbArc
 50
327.1624288071322
 51
2.787225715422231
  0
LINE
  5
789
330
1F
100
AcDbEntity
  8
0
  6
CONTINUOUS
100
AcDbLine
 10
1738.010182715987
 20
1784.452039338879
 30
0.0
 11
1738.010182715987
 21
1493.692757191167
 31
0.0
  0
LINE
  5
78A
330
1F
100
AcDbEntity
  8
0
  6
CONTINUOUS
100
AcDbLine
 10
1750.010182715987
 20
1779.787522533585
 30
0.0
 11
1750.010182715987
 21
1493.692757191167
 31
0.0
  0
LINE
  5
78B
330
1F
100
AcDbEntity
  8
0
  6
CONTINUOUS
100
AcDbLine
 10
924.5101827159695
 20
1779.787522533585
 30
0.0
 11
924.5101827159695
 21
1493.692757191167
 31
0.0
  0
LINE
  5
78C
330
1F
100
AcDbEntity
  8
0
  6
CONTINUOUS
100
AcDbLine
 10
936.5101827159694
 20
1784.452039338879
 30
0.0
 11
936.5101827159694
 21
1493.692757191167
 31
0.0
  0
ARC
  5
78D
330
1F
100
AcDbEntity
  8
0
  6
CONTINUOUS
100
AcDbCircle
 10
963.9282506193419
 20
1376.807937646458
 30
0.0
 40
26.38058376875362
100
AcDbArc
 50
209.5252795628998
 51
306.5497067148896
  0
POLYLINE
  5
78E
330
1F
100
AcDbEntity
  8
0
  6
CONTINUOUS
100
AcDb2dPolyline
 66
     1
 10
0.0
 20
0.0
 30
0.0
  0
VERTEX
  5
10EC
330
78E
100
AcDbEntity
  8
0
  6
CONTINUOUS
100
AcDbVertex
100
AcDb2dVertex
 10
997.0451398585053
 20
1446.266279796175
 30
0.0
 42
-0.6244873880121949
  0
VERTEX
  5
10ED
330
78E
100
AcDbEntity
  8
0
  6
CONTINUOUS
100
AcDbVertex
100
AcDb2dVertex
 10
991.8979124199021
 20
1462.117208801051
 30
0.0
 42
-0.5712699294635224
  0
VERTEX
  5
10EE
330
78E
100
AcDbEntity
  8
0
  6
CONTINUOUS
100
AcDbVertex
100
AcDb2dVertex
 10
1022.100649570462
 20
1453.641545015269
 30
0.0
 42
-0.1992749000703595
  0
VERTEX
  5
10EF
330
78E
100
AcDbEntity
  8
0
  6
CONTINUOUS
100
AcDbVertex
100
AcDb2dVertex
 10
1020.29642648494
 20
1436.714384904451
 30
0.0
 42
-0.1922899288213652
  0
VERTEX
  5
10F0
330
78E
100
AcDbEntity
  8
0
  6
CONTINUOUS
100
AcDbVertex
100
AcDb2dVertex
 10
1003.738101008034
 20
1423.726124056058
 30
0.0
 42
-0.1435180749715141
  0
VERTEX
  5
10F1
330
78E
100
AcDbEntity
  8
0
  6
CONTINUOUS
100
AcDbVertex
100
AcDb2dVertex
 10
981.1679989243737
 20
1423.810988931839
 30
0.0
 42
-0.2013051193684176
  0
VERTEX
  5
10F2
330
78E
100
AcDbEntity
  8
0
  6
CONTINUOUS
100
AcDbVertex
100
AcDb2dVertex
 10
946.5980712634761
 20
1451.598099767745
 30
0.0
 42
-0.0525451820212675
  0
VERTEX
  5
10F3
330
78E
100
AcDbEntity
  8
0
  6
CONTINUOUS
100
AcDbVertex
100
AcDb2dVertex
 10
940.0117420725225
 20
1467.050596464386
 30
0.0
  0
SEQEND
  5
10F4
330
78E
100
AcDbEntity
  8
0
  6
CONTINUOUS
  0
POLYLINE
  5
78F
330
1F
100
AcDbEntity
  8
0
  6
CONTINUOUS
100
AcDb2dPolyline
 66
     1
 10
0.0
 20
0.0
 30
0.0
  0
VERTEX
  5
10F5
330
78F
100
AcDbEntity
  8
0
  6
CONTINUOUS
100
AcDbVertex
100
AcDb2dVertex
 10
997.0451398585053
 20
1446.266279796175
 30
0.0
  0
VERTEX
  5
10F6
330
78F
100
AcDbEntity
  8
0
  6
CONTINUOUS
100
AcDbVertex
100
AcDb2dVertex
 10
996.8728335809526
 20
1447.927253137858
 30
0.0
 42
-0.5016049534703276
  0
VERTEX
  5
10F7
330
78F
100
AcDbEntity
  8
0
  6
CONTINUOUS
100
AcDbVertex
100
AcDb2dVertex
 10
996.060496852783
 20
1457.795963731508
 30
0.0
 42
-0.5731451722580876
  0
VERTEX
  5
10F8
330
78F
100
AcDbEntity
  8
0
  6
CONTINUOUS
100
AcDbVertex
100
AcDb2dVertex
 10
1016.321852886238
 20
1452.024252893175
 30
0.0
 42
-0.1994211041236551
  0
VERTEX
  5
10F9
330
78F
100
AcDbEntity
  8
0
  6
CONTINUOUS
100
AcDbVertex
100
AcDb2dVertex
 10
1015.066385457511
 20
1439.656282676835
 30
0.0
 42
-0.1912321573076029
  0
VERTEX
  5
10FA
330
78F
100
AcDbEntity
  8
0
  6
CONTINUOUS
100
AcDbVertex
100
AcDb2dVertex
 10
1002.060905470837
 20
1429.48695564639
 30
0.0
 42
-0.143630861908326
  0
VERTEX
  5
10FB
330
78F
100
AcDbEntity
  8
0
  6
CONTINUOUS
100
AcDbVertex
100
AcDb2dVertex
 10
982.8512674144391
 20
1429.570108749464
 30
0.0
 42
-0.2016233873508618
  0
VERTEX
  5
10FC
330
78F
100
AcDbEntity
  8
0
  6
CONTINUOUS
100
AcDbVertex
100
AcDb2dVertex
 10
951.8570358758577
 20
1454.48681393693
 30
0.0
 42
-0.0544492341104313
  0
VERTEX
  5
10FD
330
78F
100
AcDbEntity
  8
0
  6
CONTINUOUS
100
AcDbVertex
100
AcDb2dVertex
 10
945.631108743192
 20
1469.214806796389
 30
0.0
 42
-0.056122523359716
  0
SEQEND
  5
10FE
330
78F
100
AcDbEntity
  8
0
  6
CONTINUOUS
  0
POLYLINE
  5
790
330
1F
100
AcDbEntity
  8
0
  6
CONTINUOUS
100
AcDb2dPolyline
 66
     1
 10
0.0
 20
0.0
 30
0.0
  0
VERTEX
  5
10FF
330
790
100
AcDbEntity
  8
0
  6
CONTINUOUS
100
AcDbVertex
100
AcDb2dVertex
 10
991.3905282391905
 20
1137.466349292338
 30
0.0
 42
-0.6244873880121875
  0
VERTEX
  5
1100
330
790
100
AcDbEntity
  8
0
  6
CONTINUOUS
100
AcDbVertex
100
AcDb2dVertex
 10
990.9110437889838
 20
1154.125160633017
 30
0.0
 42
-0.5712699294635224
  0
VERTEX
  5
1101
330
790
100
AcDbEntity
  8
0
  6
CONTINUOUS
100
AcDbVertex
100
AcDb2dVertex
 10
1017.508957280592
 20
1137.494069090718
 30
0.0
 42
-0.1992749000703595
  0
VERTEX
  5
1102
330
790
100
AcDbEntity
  8
0
  6
CONTINUOUS
100
AcDbVertex
100
AcDb2dVertex
 10
1011.015004933697
 20
1121.758359596837
 30
0.0
 42
-0.1922899288213652
  0
VERTEX
  5
1103
330
790
100
AcDbEntity
  8
0
  6
CONTINUOUS
100
AcDbVertex
100
AcDb2dVertex
 10
991.4712258254974
 20
1113.953632783235
 30
0.0
 42
-0.1435180749715141
  0
VERTEX
  5
1104
330
790
100
AcDbEntity
  8
0
  6
CONTINUOUS
100
AcDbVertex
100
AcDb2dVertex
 10
969.8367777193096
 20
1120.385379455384
 30
0.0
 42
-0.2013051193684176
  0
VERTEX
  5
1105
330
790
100
AcDbEntity
  8
0
  6
CONTINUOUS
100
AcDbVertex
100
AcDb2dVertex
 10
944.4815543802949
 20
1156.776533277645
 30
0.0
 42
-0.0321832401292304
  0
VERTEX
  5
1106
330
790
100
AcDbEntity
  8
0
  6
CONTINUOUS
100
AcDbVertex
100
AcDb2dVertex
 10
942.8563863533515
 20
1166.953632783235
 30
0.0
 42
-0.0321832401292304
  0
SEQEND
  5
1107
330
790
100
AcDbEntity
  8
0
  6
CONTINUOUS
  0
POLYLINE
  5
791
330
1F
100
AcDbEntity
  8
0
  6
CONTINUOUS
100
AcDb2dPolyline
 66
     1
 10
0.0
 20
0.0
 30
0.0
  0
VERTEX
  5
1108
330
791
100
AcDbEntity
  8
0
  6
CONTINUOUS
100
AcDbVertex
100
AcDb2dVertex
 10
991.3905282391905
 20
1137.466349292338
 30
0.0
  0
VERTEX
  5
1109
330
791
100
AcDbEntity
  8
0
  6
CONTINUOUS
100
AcDbVertex
100
AcDb2dVertex
 10
991.6925131544765
 20
1139.108703397275
 30
0.0
 42
-0.5016049534703276
  0
VERTEX
  5
110A
330
791
100
AcDbEntity
  8
0
  6
CONTINUOUS
100
AcDbVertex
100
AcDb2dVertex
 10
993.6896472073701
 20
1148.807300992594
 30
0.0
 42
-0.5731451722580876
  0
VERTEX
  5
110B
330
791
100
AcDbEntity
  8
0
  6
CONTINUOUS
100
AcDbVertex
100
AcDb2dVertex
 10
1011.508569404156
 20
1137.56803028402
 30
0.0
 42
-0.1994211041236551
  0
VERTEX
  5
110C
330
791
100
AcDbEntity
  8
0
  6
CONTINUOUS
100
AcDbVertex
100
AcDb2dVertex
 10
1006.823975221454
 20
1126.052933103349
 30
0.0
 42
-0.1912321573076029
  0
VERTEX
  5
110D
330
791
100
AcDbEntity
  8
0
  6
CONTINUOUS
100
AcDbVertex
100
AcDb2dVertex
 10
991.4826489060549
 20
1119.953635699518
 30
0.0
 42
-0.143630861908326
  0
VERTEX
  5
110E
330
791
100
AcDbEntity
  8
0
  6
CONTINUOUS
100
AcDbVertex
100
AcDb2dVertex
 10
973.0724287467536
 20
1125.438241645472
 30
0.0
 42
-0.2016233873508618
  0
VERTEX
  5
110F
330
791
100
AcDbEntity
  8
0
  6
CONTINUOUS
100
AcDbVertex
100
AcDb2dVertex
 10
950.3408366483716
 20
1158.068891451122
 30
0.0
 42
-0.0305957625576657
  0
VERTEX
  5
1110
330
791
100
AcDbEntity
  8
0
  6
CONTINUOUS
100
AcDbVertex
100
AcDb2dVertex
 10
948.8855690427179
 20
1166.953632783235
 30
0.0
 42
-0.0305957625576657
  0
SEQEND
  5
1111
330
791
100
AcDbEntity
  8
0
  6
CONTINUOUS
  0
POLYLINE
  5
792
330
1F
100
AcDbEntity
  8
0
  6
CONTINUOUS
100
AcDb2dPolyline
 66
     1
 10
0.0
 20
0.0
 30
0.0
  0
VERTEX
  5
1112
330
792
100
AcDbEntity
  8
0
  6
CONTINUOUS
100
AcDbVertex
100
AcDb2dVertex
 10
991.3905282391905
 20
1210.440916274132
 30
0.0
 42
0.6244873880122032
  0
VERTEX
  5
1113
330
792
100
AcDbEntity
  8
0
  6
CONTINUOUS
100
AcDbVertex
100
AcDb2dVertex
 10
990.9110437889838
 20
1193.782104933454
 30
0.0
 42
0.5712699294635224
  0
VERTEX
  5
1114
330
792
100
AcDbEntity
  8
0
  6
CONTINUOUS
100
AcDbVertex
100
AcDb2dVertex
 10
1017.508957280592
 20
1210.413196475752
 30
0.0
 42
0.1992749000703595
  0
VERTEX
  5
1115
330
792
100
AcDbEntity
  8
0
  6
CONTINUOUS
100
AcDbVertex
100
AcDb2dVertex
 10
1011.015004933697
 20
1226.148905969634
 30
0.0
 42
0.1922899288213652
  0
VERTEX
  5
1116
330
792
100
AcDbEntity
  8
0
  6
CONTINUOUS
100
AcDbVertex
100
AcDb2dVertex
 10
991.4712258254974
 20
1233.953632783235
 30
0.0
 42
0.1435180749715141
  0
VERTEX
  5
1117
330
792
100
AcDbEntity
  8
0
  6
CONTINUOUS
100
AcDbVertex
100
AcDb2dVertex
 10
969.8367777193096
 20
1227.521886111086
 30
0.0
 42
0.2013051193684176
  0
VERTEX
  5
1118
330
792
100
AcDbEntity
  8
0
  6
CONTINUOUS
100
AcDbVertex
100
AcDb2dVertex
 10
944.4815543802949
 20
1191.130732288826
 30
0.0
 42
0.0323879793785061
  0
VERTEX
  5
1119
330
792
100
AcDbEntity
  8
0
  6
CONTINUOUS
100
AcDbVertex
100
AcDb2dVertex
 10
942.8570654211204
 20
1180.953632783235
 30
0.0
 42
0.0323879793785061
  0
SEQEND
  5
111A
330
792
100
AcDbEntity
  8
0
  6
CONTINUOUS
  0
POLYLINE
  5
793
330
1F
100
AcDbEntity
  8
0
  6
CONTINUOUS
100
AcDb2dPolyline
 66
     1
 10
0.0
 20
0.0
 30
0.0
  0
VERTEX
  5
111B
330
793
100
AcDbEntity
  8
0
  6
CONTINUOUS
100
AcDbVertex
100
AcDb2dVertex
 10
991.3905282391905
 20
1210.440916274132
 30
0.0
  0
VERTEX
  5
111C
330
793
100
AcDbEntity
  8
0
  6
CONTINUOUS
100
AcDbVertex
100
AcDb2dVertex
 10
991.6925131544765
 20
1208.798562169196
 30
0.0
 42
0.5016049534703276
  0
VERTEX
  5
111D
330
793
100
AcDbEntity
  8
0
  6
CONTINUOUS
100
AcDbVertex
100
AcDb2dVertex
 10
993.6896472073701
 20
1199.099964573876
 30
0.0
 42
0.5731451722580876
  0
VERTEX
  5
111E
330
793
100
AcDbEntity
  8
0
  6
CONTINUOUS
100
AcDbVertex
100
AcDb2dVertex
 10
1011.508569404156
 20
1210.33923528245
 30
0.0
 42
0.1994211041236551
  0
VERTEX
  5
111F
330
793
100
AcDbEntity
  8
0
  6
CONTINUOUS
100
AcDbVertex
100
AcDb2dVertex
 10
1006.823975221454
 20
1221.854332463121
 30
0.0
 42
0.1912321573076029
  0
VERTEX
  5
1120
330
793
100
AcDbEntity
  8
0
  6
CONTINUOUS
100
AcDbVertex
100
AcDb2dVertex
 10
991.4826489060549
 20
1227.953629866952
 30
0.0
 42
0.143630861908326
  0
VERTEX
  5
1121
330
793
100
AcDbEntity
  8
0
  6
CONTINUOUS
100
AcDbVertex
100
AcDb2dVertex
 10
973.0724287467536
 20
1222.469023920999
 30
0.0
 42
0.2016233873508618
  0
VERTEX
  5
1122
330
793
100
AcDbEntity
  8
0
  6
CONTINUOUS
100
AcDbVertex
100
AcDb2dVertex
 10
950.3408366483716
 20
1189.838374115349
 30
0.0
 42
0.0305957625576678
  0
VERTEX
  5
1123
330
793
100
AcDbEntity
  8
0
  6
CONTINUOUS
100
AcDbVertex
100
AcDb2dVertex
 10
948.8855690427179
 20
1180.953632783235
 30
0.0
 42
0.0305957625576678
  0
SEQEND
  5
1124
330
793
100
AcDbEntity
  8
0
  6
CONTINUOUS
  0
LINE
  5
794
330
1F
100
AcDbEntity
  8
0
  6
CONTINUOUS
100
AcDbLine
 10
1016.903421952286
 20
1358.225051945937
 30
0.0
 11
954.2061258626224
 21
1239.165360980378
 31
0.0
  0
LINE
  5
795
330
1F
100
AcDbEntity
  8
0
  6
CONTINUOUS
100
AcDbLine
 10
1011.603559670983
 20
1361.037850243469
 30
0.0
 11
948.8043540725909
 21
1241.784637142628
 31
0.0
  0
POLYLINE
  5
796
330
1F
100
AcDbEntity
  8
0
  6
CONTINUOUS
100
AcDb2dPolyline
 66
     1
 10
0.0
 20
0.0
 30
0.0
  0
VERTEX
  5
1125
330
796
100
AcDbEntity
  8
0
  6
CONTINUOUS
100
AcDbVertex
100
AcDb2dVertex
 10
976.5130602926536
 20
1516.292854286734
 30
0.0
  0
VERTEX
  5
1126
330
796
100
AcDbEntity
  8
0
  6
CONTINUOUS
100
AcDbVertex
100
AcDb2dVertex
 10
977.2649375095031
 20
1514.801813527451
 30
0.0
 42
0.5016049534703276
  0
VERTEX
  5
1127
330
796
100
AcDbEntity
  8
0
  6
CONTINUOUS
100
AcDbVertex
100
AcDb2dVertex
 10
981.910183765113
 20
1506.056927766853
 30
0.0
 42
0.5731451722580876
  0
VERTEX
  5
1128
330
796
100
AcDbEntity
  8
0
  6
CONTINUOUS
100
AcDbVertex
100
AcDb2dVertex
 10
995.846991123736
 20
1521.855680722843
 30
0.0
 42
0.1994211041236551
  0
VERTEX
  5
1129
330
796
100
AcDbEntity
  8
0
  6
CONTINUOUS
100
AcDbVertex
100
AcDb2dVertex
 10
988.1117622849549
 20
1531.587541826897
 30
0.0
 42
0.1912321573076029
  0
VERTEX
  5
112A
330
796
100
AcDbEntity
  8
0
  6
CONTINUOUS
100
AcDbVertex
100
AcDb2dVertex
 10
971.6740931186585
 20
1533.124016465574
 30
0.0
 42
0.143630861908326
  0
VERTEX
  5
112B
330
796
100
AcDbEntity
  8
0
  6
CONTINUOUS
100
AcDbVertex
100
AcDb2dVertex
 10
955.5507458160725
 20
1522.681086778148
 30
0.0
 42
0.1577079741972947
  0
VERTEX
  5
112C
330
796
100
AcDbEntity
  8
0
  6
CONTINUOUS
100
AcDbVertex
100
AcDb2dVertex
 10
943.0091970705658
 20
1493.692757191167
 30
0.0
 42
0.1577079741972947
  0
SEQEND
  5
112D
330
796
100
AcDbEntity
  8
0
  6
CONTINUOUS
  0
POLYLINE
  5
797
330
1F
100
AcDbEntity
  8
0
  6
CONTINUOUS
100
AcDb2dPolyline
 66
     1
 10
0.0
 20
0.0
 30
0.0
  0
VERTEX
  5
112E
330
797
100
AcDbEntity
  8
0
  6
CONTINUOUS
100
AcDbVertex
100
AcDb2dVertex
 10
976.5130602926536
 20
1516.292854286734
 30
0.0
 42
0.624487388012175
  0
VERTEX
  5
112F
330
797
100
AcDbEntity
  8
0
  6
CONTINUOUS
100
AcDbVertex
100
AcDb2dVertex
 10
980.7400588088173
 20
1500.172110378135
 30
0.0
 42
0.5712699294635224
  0
VERTEX
  5
1130
330
797
100
AcDbEntity
  8
0
  6
CONTINUOUS
100
AcDbVertex
100
AcDb2dVertex
 10
1001.584168455673
 20
1523.614919532018
 30
0.0
 42
0.1992749000703595
  0
VERTEX
  5
1131
330
797
100
AcDbEntity
  8
0
  6
CONTINUOUS
100
AcDbVertex
100
AcDb2dVertex
 10
990.925166158261
 20
1536.887810716058
 30
0.0
 42
0.1922899288213652
  0
VERTEX
  5
1132
330
797
100
AcDbEntity
  8
0
  6
CONTINUOUS
100
AcDbVertex
100
AcDb2dVertex
 10
969.9749743488963
 20
1538.878420073978
 30
0.0
 42
0.1435180749715141
  0
VERTEX
  5
1133
330
797
100
AcDbEntity
  8
0
  6
CONTINUOUS
100
AcDbVertex
100
AcDb2dVertex
 10
951.0241368907543
 20
1526.6194450047
 30
0.0
 42
0.1601386182095308
  0
VERTEX
  5
1134
330
797
100
AcDbEntity
  8
0
  6
CONTINUOUS
100
AcDbVertex
100
AcDb2dVertex
 10
936.9846315986604
 20
1493.692757191167
 30
0.0
 42
0.1601386182095308
  0
SEQEND
  5
1135
330
797
100
AcDbEntity
  8
0
  6
CONTINUOUS
  0
ARC
  5
798
330
1F
100
AcDbEntity
  8
0
  6
CONTINUOUS
100
AcDbCircle
 10
976.4265424491629
 20
1383.635980180953
 30
0.0
 40
39.8737589960223
100
AcDbArc
 50
88.33157645657074
 51
155.5533823134107
  0
ARC
  5
799
330
1F
100
AcDbEntity
  8
0
  6
CONTINUOUS
100
AcDbCircle
 10
976.4265424491629
 20
1383.635980180953
 30
0.0
 40
33.8737589960223
100
AcDbArc
 50
88.33157645657074
 51
155.5533823134107
  0
ARC
  5
79A
330
1F
100
AcDbEntity
  8
0
  6
CONTINUOUS
100
AcDbCircle
 10
970.3348438088857
 20
1375.471552451395
 30
0.0
 40
13.29758727790373
100
AcDbArc
 50
45.56920431371849
 51
135.0605888708325
  0
ARC
  5
79B
330
1F
100
AcDbEntity
  8
0
  6
CONTINUOUS
100
AcDbCircle
 10
968.310489205877
 20
1373.991198504696
 30
0.0
 40
10.98638464699961
100
AcDbArc
 50
38.18591960824463
 51
123.6037291032408
  0
ARC
  5
79C
330
1F
100
AcDbEntity
  8
0
  6
CONTINUOUS
100
AcDbCircle
 10
963.4810667095633
 20
1376.201832200153
 30
0.0
 40
19.7020449873939
100
AcDbArc
 50
209.6009041723514
 51
307.2767026925461
  0
LINE
  5
79D
330
1F
100
AcDbEntity
  8
0
  6
CONTINUOUS
100
AcDbLine
 10
849.4168057609556
 20
1361.037850243469
 30
0.0
 11
912.2160113593478
 21
1241.784637142628
 31
0.0
  0
LINE
  5
79E
330
1F
100
AcDbEntity
  8
0
  6
CONTINUOUS
100
AcDbLine
 10
844.1169434796545
 20
1358.225051945937
 30
0.0
 11
906.8142395693183
 21
1239.165360980378
 31
0.0
  0
LINE
  5
79F
330
1F
100
AcDbEntity
  8
0
  6
CONTINUOUS
100
AcDbLine
 10
924.5101827159695
 20
1375.948558848871
 30
0.0
 11
924.5101827159695
 21
1180.953632783235
 31
0.0
  0
LINE
  5
7A0
330
1F
100
AcDbEntity
  8
0
  6
CONTINUOUS
100
AcDbLine
 10
936.5101827159694
 20
1375.948558848871
 30
0.0
 11
936.5101827159694
 21
1180.953632783235
 31
0.0
  0
LINE
  5
7A1
330
1F
100
AcDbEntity
  8
0
100
AcDbLine
 10
528.0081734601887
 20
1330.398343542452
 30
0.0
 11
545.7569203080536
 21
1328.055825325621
 31
0.0
  0
ARC
  5
7A2
330
1F
100
AcDbEntity
  8
0
100
AcDbCircle
 10
595.8417822115413
 20
1308.030574614523
 30
0.0
 40
47.3092865871033
100
AcDbArc
 50
146.7886702846587
 51
213.2113297153412
  0
LINE
  5
7A3
330
1F
100
AcDbEntity
  8
0
100
AcDbLine
 10
908.1347963892211
 20
1166.953632783235
 30
0.0
 11
908.1347963892211
 21
1170.953632783235
 31
0.0
  0
LINE
  5
7A4
330
1F
100
AcDbEntity
  8
0
100
AcDbLine
 10
952.8855690427178
 20
1166.953632783235
 30
0.0
 11
952.8855690427178
 21
1170.953632783235
 31
0.0
  0
ARC
  5
7A5
330
1F
100
AcDbEntity
  8
0
100
AcDbCircle
 10
514.021277282364
 20
1175.875590256302
 30
0.0
 40
14.70319572620801
100
AcDbArc
 50
326.3458272488429
 51
33.65417275115706
  0
ARC
  5
7A6
330
1F
100
AcDbEntity
  8
0
100
AcDbCircle
 10
573.236620797307
 20
1175.875590256302
 30
0.0
 40
18.83062952425546
100
AcDbArc
 50
154.3603398614806
 51
205.6396601385193
  0
ARC
  5
7A7
330
1F
100
AcDbEntity
  8
0
100
AcDbCircle
 10
658.2379422089513
 20
1070.271121598403
 30
0.0
 40
106.6116003211486
100
AcDbArc
 50
163.0452386242167
 51
196.9547613757832
  0
LINE
  5
7A8
330
1F
100
AcDbEntity
  8
0
100
AcDbLine
 10
546.7799641813842
 20
1043.101672146636
 30
0.0
 11
528.8405861083999
 21
1043.573432943461
 31
0.0
  0
LINE
  5
7A9
330
1F
100
AcDbEntity
  8
0
100
AcDbLine
 10
527.896411384602
 20
1042.158161997654
 30
0.0
 11
544.8916147337847
 21
1040.742891051847
 31
0.0
  0
LINE
  5
7AA
330
1F
100
AcDbEntity
  8
0
100
AcDbLine
 10
529.3913287769326
 20
1069.776557293956
 30
0.0
 11
549.8762149691363
 21
1073.388999130723
 31
0.0
  0
LINE
  5
7AB
330
1F
100
AcDbEntity
  8
0
100
AcDbLine
 10
549.8762149691363
 20
1068.572417644814
 30
0.0
 11
527.5838313857536
 21
1067.970347820244
 31
0.0
  0
LINE
  5
7AC
330
1F
100
AcDbEntity
  8
0
100
AcDbLine
 10
551.2644830752149
 20
1021.177309842317
 30
0.0
 11
533.5334074269856
 21
1021.177309842317
 31
0.0
  0
LINE
  5
7AD
330
1F
100
AcDbEntity
  8
0
100
AcDbLine
 10
551.6500612639763
 20
1114.702374255318
 30
0.0
 11
530.2094139508524
 21
1114.702374255318
 31
0.0
  0
LINE
  5
7AE
330
1F
100
AcDbEntity
  8
0
100
AcDbLine
 10
530.9890657235817
 20
1111.975475307253
 30
0.0
 11
553.9890360224315
 21
1112.754594197274
 31
0.0
  0
LINE
  5
7AF
330
1F
100
AcDbEntity
  8
0
100
AcDbLine
 10
528.3856450590181
 20
1148.653689875836
 30
0.0
 11
549.9875687991886
 21
1147.476239200233
 31
0.0
  0
LINE
  5
7B0
330
1F
100
AcDbEntity
  8
0
100
AcDbLine
 10
550.7730915315339
 20
1142.766402163804
 30
0.0
 11
528.3856450590181
 21
1148.653689875836
 31
0.0
  0
ARC
  5
7B1
330
1F
100
AcDbEntity
  8
0
100
AcDbCircle
 10
497.8444729082609
 20
1113.128062434396
 30
0.0
 40
30.75581818224811
100
AcDbArc
 50
337.5050578834446
 51
22.49494211655546
  0
ARC
  5
7B2
330
1F
100
AcDbEntity
  8
0
100
AcDbCircle
 10
611.5046238306375
 20
1146.311343329077
 30
0.0
 40
59.25027723911768
100
AcDbArc
 50
158.8106919803585
 51
201.1893080196414
  0
ARC
  5
7B3
330
1F
100
AcDbEntity
  8
0
  6
CONTINUOUS
100
AcDbCircle
 10
783.1300874195319
 20
1163.611976234416
 30
0.0
 40
135.308884614809
100
AcDbArc
 50
336.0764622676453
 51
1.355050440745923
  0
ARC
  5
7B4
330
1F
100
AcDbEntity
  8
0
  6
CONTINUOUS
100
AcDbCircle
 10
783.1300874195319
 20
1163.611976234416
 30
0.0
 40
141.308884614809
100
AcDbArc
 50
335.9938542955114
 51
1.355050440745923
  0
ARC
  5
7B5
330
1F
100
AcDbEntity
  8
0
  6
CONTINUOUS
100
AcDbCircle
 10
1077.890278012406
 20
1163.611976234416
 30
0.0
 40
135.308884614809
100
AcDbArc
 50
178.644949559254
 51
203.9235377323546
  0
ARC
  5
7B6
330
1F
100
AcDbEntity
  8
0
  6
CONTINUOUS
100
AcDbCircle
 10
1077.890278012406
 20
1163.611976234416
 30
0.0
 40
141.308884614809
100
AcDbArc
 50
178.644949559254
 51
204.0061457044885
  0
LINE
  5
7B7
330
1F
100
AcDbEntity
  8
0
100
AcDbLine
 10
908.1347963892211
 20
1166.953632783235
 30
0.0
 11
952.8855690427178
 21
1166.953632783235
 31
0.0
  0
POLYLINE
  5
7B8
330
1F
100
AcDbEntity
  8
0
  6
CONTINUOUS
100
AcDb2dPolyline
 66
     1
 10
0.0
 20
0.0
 30
0.0
  0
VERTEX
  5
1136
330
7B8
100
AcDbEntity
  8
0
  6
CONTINUOUS
100
AcDbVertex
100
AcDb2dVertex
 10
869.6298371927484
 20
1137.466349292338
 30
0.0
  0
VERTEX
  5
1137
330
7B8
100
AcDbEntity
  8
0
  6
CONTINUOUS
100
AcDbVertex
100
AcDb2dVertex
 10
869.3278522774642
 20
1139.108703397275
 30
0.0
 42
0.5016049534703276
  0
VERTEX
  5
1138
330
7B8
100
AcDbEntity
  8
0
  6
CONTINUOUS
100
AcDbVertex
100
AcDb2dVertex
 10
867.3307182245688
 20
1148.807300992594
 30
0.0
 42
0.5731451722580876
  0
VERTEX
  5
1139
330
7B8
100
AcDbEntity
  8
0
  6
CONTINUOUS
100
AcDbVertex
100
AcDb2dVertex
 10
849.5117960277827
 20
1137.56803028402
 30
0.0
 42
0.1994211041236551
  0
VERTEX
  5
113A
330
7B8
100
AcDbEntity
  8
0
  6
CONTINUOUS
100
AcDbVertex
100
AcDb2dVertex
 10
854.1963902104861
 20
1126.052933103349
 30
0.0
 42
0.1912321573076029
  0
VERTEX
  5
113B
330
7B8
100
AcDbEntity
  8
0
  6
CONTINUOUS
100
AcDbVertex
100
AcDb2dVertex
 10
869.537716525884
 20
1119.953635699518
 30
0.0
 42
0.143630861908326
  0
VERTEX
  5
113C
330
7B8
100
AcDbEntity
  8
0
  6
CONTINUOUS
100
AcDbVertex
100
AcDb2dVertex
 10
887.9479366851853
 20
1125.438241645472
 30
0.0
 42
0.2016233873508618
  0
VERTEX
  5
113D
330
7B8
100
AcDbEntity
  8
0
  6
CONTINUOUS
100
AcDbVertex
100
AcDb2dVertex
 10
910.6795287835673
 20
1158.068891451122
 30
0.0
 42
0.0305957625576657
  0
VERTEX
  5
113E
330
7B8
100
AcDbEntity
  8
0
  6
CONTINUOUS
100
AcDbVertex
100
AcDb2dVertex
 10
912.134796389221
 20
1166.953632783235
 30
0.0
 42
0.0305957625576657
  0
SEQEND
  5
113F
330
7B8
100
AcDbEntity
  8
0
  6
CONTINUOUS
  0
POLYLINE
  5
7B9
330
1F
100
AcDbEntity
  8
0
  6
CONTINUOUS
100
AcDb2dPolyline
 66
     1
 10
0.0
 20
0.0
 30
0.0
  0
VERTEX
  5
1140
330
7B9
100
AcDbEntity
  8
0
  6
CONTINUOUS
100
AcDbVertex
100
AcDb2dVertex
 10
869.6298371927484
 20
1137.466349292338
 30
0.0
 42
0.6244873880121875
  0
VERTEX
  5
1141
330
7B9
100
AcDbEntity
  8
0
  6
CONTINUOUS
100
AcDbVertex
100
AcDb2dVertex
 10
870.1093216429569
 20
1154.125160633017
 30
0.0
 42
0.5712699294635224
  0
VERTEX
  5
1142
330
7B9
100
AcDbEntity
  8
0
  6
CONTINUOUS
100
AcDbVertex
100
AcDb2dVertex
 10
843.5114081513463
 20
1137.494069090718
 30
0.0
 42
0.1992749000703595
  0
VERTEX
  5
1143
330
7B9
100
AcDbEntity
  8
0
  6
CONTINUOUS
100
AcDbVertex
100
AcDb2dVertex
 10
850.0053604982429
 20
1121.758359596837
 30
0.0
 42
0.1922899288213652
  0
VERTEX
  5
1144
330
7B9
100
AcDbEntity
  8
0
  6
CONTINUOUS
100
AcDbVertex
100
AcDb2dVertex
 10
869.5491396064433
 20
1113.953632783235
 30
0.0
 42
0.1435180749715141
  0
VERTEX
  5
1145
330
7B9
100
AcDbEntity
  8
0
  6
CONTINUOUS
100
AcDbVertex
100
AcDb2dVertex
 10
891.1835877126311
 20
1120.385379455384
 30
0.0
 42
0.2013051193684176
  0
VERTEX
  5
1146
330
7B9
100
AcDbEntity
  8
0
  6
CONTINUOUS
100
AcDbVertex
100
AcDb2dVertex
 10
916.538811051644
 20
1156.776533277645
 30
0.0
 42
0.0321832401292304
  0
VERTEX
  5
1147
330
7B9
100
AcDbEntity
  8
0
  6
CONTINUOUS
100
AcDbVertex
100
AcDb2dVertex
 10
918.1639790785872
 20
1166.953632783235
 30
0.0
 42
0.0321832401292304
  0
SEQEND
  5
1148
330
7B9
100
AcDbEntity
  8
0
  6
CONTINUOUS
  0
ARC
  5
7BA
330
1F
100
AcDbEntity
  8
0
100
AcDbCircle
 10
478.5459203546822
 20
1263.612620665691
 30
0.0
 40
51.17711403260225
100
AcDbArc
 50
338.8019222469722
 51
21.1980777530278
  0
ARC
  5
7BB
330
1F
100
AcDbEntity
  8
0
100
AcDbCircle
 10
628.1637749139451
 20
1263.612620665691
 30
0.0
 40
74.24670187285427
100
AcDbArc
 50
165.5674138149892
 51
194.4325861850107
  0
ARC
  5
7BC
330
1F
100
AcDbEntity
  8
0
100
AcDbCircle
 10
478.5459203546822
 20
1202.529091035246
 30
0.0
 40
51.17711403260225
100
AcDbArc
 50
338.8019222469722
 51
21.1980777530278
  0
ARC
  5
7BD
330
1F
100
AcDbEntity
  8
0
100
AcDbCircle
 10
628.1637749139451
 20
1202.529091035246
 30
0.0
 40
74.24670187285427
100
AcDbArc
 50
165.5674138149892
 51
194.4325861850107
  0
LINE
  5
7BE
330
1F
100
AcDbEntity
  8
0
100
AcDbLine
 10
552.322266699645
 20
1174.192256496307
 30
0.0
 11
530.1012483240344
 21
1177.152981524282
 31
0.0
  0
LINE
  5
7BF
330
1F
100
AcDbEntity
  8
0
100
AcDbLine
 10
531.582654733146
 20
1174.192256496307
 30
0.0
 11
552.8160688360156
 21
1172.711899704655
 31
0.0
  0
LINE
  5
7C0
330
1F
100
AcDbEntity
  8
0
100
AcDbLine
 10
551.3381616743579
 20
1204.346974073714
 30
0.0
 11
532.5737388130772
 21
1201.386260490411
 31
0.0
  0
LINE
  5
7C1
330
1F
100
AcDbEntity
  8
0
100
AcDbLine
 10
532.0799561169703
 20
1200.399352147752
 30
0.0
 11
552.3257659470989
 21
1201.386260490411
 31
0.0
  0
LINE
  5
7C2
330
1F
100
AcDbEntity
  8
0
100
AcDbLine
 10
551.7129893973367
 20
1237.628673215805
 30
0.0
 11
533.2764849029015
 21
1236.641696205118
 31
0.0
  0
LINE
  5
7C3
330
1F
100
AcDbEntity
  8
0
100
AcDbLine
 10
531.3011597158372
 20
1234.667742183748
 30
0.0
 11
551.7129893973367
 21
1234.667742183748
 31
0.0
  0
LINE
  5
7C4
330
1F
100
AcDbEntity
  8
0
100
AcDbLine
 10
545.0871449053381
 20
1326.717233677714
 30
0.0
 11
528.0081734601887
 21
1327.051887312026
 31
0.0
  0
LINE
  5
7C5
330
1F
100
AcDbEntity
  8
0
100
AcDbLine
 10
552.0418797773642
 20
1263.656190529438
 30
0.0
 11
531.3008292313577
 21
1263.327202007432
 31
0.0
  0
LINE
  5
7C6
330
1F
100
AcDbEntity
  8
0
100
AcDbLine
 10
531.9592709603755
 20
1262.340224996747
 30
0.0
 11
551.3834380483428
 21
1261.35324798606
 31
0.0
  0
ARC
  5
7C7
330
1F
100
AcDbEntity
  8
0
  6
CONTINUOUS
100
AcDbCircle
 10
783.1300874195319
 20
1184.295289332054
 30
0.0
 40
141.308884614809
100
AcDbArc
 50
358.644949559254
 51
24.0061457044885
  0
ARC
  5
7C8
330
1F
100
AcDbEntity
  8
0
  6
CONTINUOUS
100
AcDbCircle
 10
1077.890278012406
 20
1184.295289332054
 30
0.0
 40
141.308884614809
100
AcDbArc
 50
155.9938542955114
 51
181.3550504407459
  0
LINE
  5
7C9
330
1F
100
AcDbEntity
  8
0
100
AcDbLine
 10
908.1347963892211
 20
1176.953632783235
 30
0.0
 11
908.1347963892211
 21
1180.953632783235
 31
0.0
  0
ARC
  5
7CA
330
1F
100
AcDbEntity
  8
0
  6
CONTINUOUS
100
AcDbCircle
 10
783.1300874195319
 20
1184.295289332054
 30
0.0
 40
135.308884614809
100
AcDbArc
 50
358.644949559254
 51
23.92353773235466
  0
LINE
  5
7CB
330
1F
100
AcDbEntity
  8
0
100
AcDbLine
 10
952.8855690427178
 20
1176.953632783235
 30
0.0
 11
952.8855690427178
 21
1180.953632783235
 31
0.0
  0
ARC
  5
7CC
330
1F
100
AcDbEntity
  8
0
  6
CONTINUOUS
100
AcDbCircle
 10
1077.890278012406
 20
1184.295289332054
 30
0.0
 40
135.308884614809
100
AcDbArc
 50
156.0764622676453
 51
181.3550504407459
  0
LINE
  5
7CD
330
1F
100
AcDbEntity
  8
0
100
AcDbLine
 10
952.8855690427178
 20
1176.953632783235
 30
0.0
 11
908.1347963892211
 21
1176.953632783235
 31
0.0
  0
LINE
  5
7CE
330
1F
100
AcDbEntity
  8
0
100
AcDbLine
 10
952.8855690427178
 20
1180.953632783235
 30
0.0
 11
908.1347963892211
 21
1180.953632783235
 31
0.0
  0
POLYLINE
  5
7CF
330
1F
100
AcDbEntity
  8
0
  6
CONTINUOUS
100
AcDb2dPolyline
 66
     1
 10
0.0
 20
0.0
 30
0.0
  0
VERTEX
  5
1149
330
7CF
100
AcDbEntity
  8
0
  6
CONTINUOUS
100
AcDbVertex
100
AcDb2dVertex
 10
869.6298371927484
 20
1210.440916274132
 30
0.0
  0
VERTEX
  5
114A
330
7CF
100
AcDbEntity
  8
0
  6
CONTINUOUS
100
AcDbVertex
100
AcDb2dVertex
 10
869.3278522774642
 20
1208.798562169196
 30
0.0
 42
-0.5016049534703276
  0
VERTEX
  5
114B
330
7CF
100
AcDbEntity
  8
0
  6
CONTINUOUS
100
AcDbVertex
100
AcDb2dVertex
 10
867.3307182245688
 20
1199.099964573876
 30
0.0
 42
-0.5731451722580876
  0
VERTEX
  5
114C
330
7CF
100
AcDbEntity
  8
0
  6
CONTINUOUS
100
AcDbVertex
100
AcDb2dVertex
 10
849.5117960277827
 20
1210.33923528245
 30
0.0
 42
-0.1994211041236551
  0
VERTEX
  5
114D
330
7CF
100
AcDbEntity
  8
0
  6
CONTINUOUS
100
AcDbVertex
100
AcDb2dVertex
 10
854.1963902104861
 20
1221.854332463121
 30
0.0
 42
-0.1912321573076029
  0
VERTEX
  5
114E
330
7CF
100
AcDbEntity
  8
0
  6
CONTINUOUS
100
AcDbVertex
100
AcDb2dVertex
 10
869.537716525884
 20
1227.953629866952
 30
0.0
 42
-0.143630861908326
  0
VERTEX
  5
114F
330
7CF
100
AcDbEntity
  8
0
  6
CONTINUOUS
100
AcDbVertex
100
AcDb2dVertex
 10
887.9479366851853
 20
1222.469023920999
 30
0.0
 42
-0.2016233873508618
  0
VERTEX
  5
1150
330
7CF
100
AcDbEntity
  8
0
  6
CONTINUOUS
100
AcDbVertex
100
AcDb2dVertex
 10
910.6795287835673
 20
1189.838374115349
 30
0.0
 42
-0.0305957625576679
  0
VERTEX
  5
1151
330
7CF
100
AcDbEntity
  8
0
  6
CONTINUOUS
100
AcDbVertex
100
AcDb2dVertex
 10
912.134796389221
 20
1180.953632783235
 30
0.0
 42
-0.0305957625576679
  0
SEQEND
  5
1152
330
7CF
100
AcDbEntity
  8
0
  6
CONTINUOUS
  0
POLYLINE
  5
7D0
330
1F
100
AcDbEntity
  8
0
  6
CONTINUOUS
100
AcDb2dPolyline
 66
     1
 10
0.0
 20
0.0
 30
0.0
  0
VERTEX
  5
1153
330
7D0
100
AcDbEntity
  8
0
  6
CONTINUOUS
100
AcDbVertex
100
AcDb2dVertex
 10
869.6298371927484
 20
1210.440916274132
 30
0.0
 42
-0.6244873880122032
  0
VERTEX
  5
1154
330
7D0
100
AcDbEntity
  8
0
  6
CONTINUOUS
100
AcDbVertex
100
AcDb2dVertex
 10
870.1093216429569
 20
1193.782104933454
 30
0.0
 42
-0.5712699294635224
  0
VERTEX
  5
1155
330
7D0
100
AcDbEntity
  8
0
  6
CONTINUOUS
100
AcDbVertex
100
AcDb2dVertex
 10
843.5114081513463
 20
1210.413196475752
 30
0.0
 42
-0.1992749000703595
  0
VERTEX
  5
1156
330
7D0
100
AcDbEntity
  8
0
  6
CONTINUOUS
100
AcDbVertex
100
AcDb2dVertex
 10
850.0053604982429
 20
1226.148905969634
 30
0.0
 42
-0.1922899288213652
  0
VERTEX
  5
1157
330
7D0
100
AcDbEntity
  8
0
  6
CONTINUOUS
100
AcDbVertex
100
AcDb2dVertex
 10
869.5491396064433
 20
1233.953632783235
 30
0.0
 42
-0.1435180749715141
  0
VERTEX
  5
1158
330
7D0
100
AcDbEntity
  8
0
  6
CONTINUOUS
100
AcDbVertex
100
AcDb2dVertex
 10
891.1835877126311
 20
1227.521886111086
 30
0.0
 42
-0.2013051193684176
  0
VERTEX
  5
1159
330
7D0
100
AcDbEntity
  8
0
  6
CONTINUOUS
100
AcDbVertex
100
AcDb2dVertex
 10
916.538811051644
 20
1191.130732288826
 30
0.0
 42
-0.0323879793785061
  0
VERTEX
  5
115A
330
7D0
100
AcDbEntity
  8
0
  6
CONTINUOUS
100
AcDbVertex
100
AcDb2dVertex
 10
918.1633000108202
 20
1180.953632783235
 30
0.0
 42
-0.0323879793785061
  0
SEQEND
  5
115B
330
7D0
100
AcDbEntity
  8
0
  6
CONTINUOUS
  0
LINE
  5
7D1
330
1F
100
AcDbEntity
  8
0
100
AcDbLine
 10
952.8855690427178
 20
1170.953632783234
 30
0.0
 11
908.1347963892211
 21
1170.953632783234
 31
0.0
  0
ARC
  5
7D2
330
1F
100
AcDbEntity
  8
0
100
AcDbCircle
 10
908.1347963892211
 20
1173.953632783235
 30
0.0
 40
3.000000000000056
100
AcDbArc
 50
90.0
 51
270.0
  0
ARC
  5
7D3
330
1F
100
AcDbEntity
  8
0
100
AcDbCircle
 10
952.8855690427178
 20
1173.953632783235
 30
0.0
 40
3.000000000000056
100
AcDbArc
 50
270.0
 51
90.0
  0
ARC
  5
7D4
330
1F
100
AcDbEntity
  8
0
100
AcDbCircle
 10
497.8444729082609
 20
1480.434522644118
 30
0.0
 40
30.75581818224811
100
AcDbArc
 50
337.5050578834446
 51
22.49494211655546
  0
ARC
  5
7D5
330
1F
100
AcDbEntity
  8
0
100
AcDbCircle
 10
913.8281303903283
 20
1486.692757191168
 30
0.0
 40
3.000000000000056
100
AcDbArc
 50
90.0
 51
270.0
  0
ARC
  5
7D6
330
1F
100
AcDbEntity
  8
0
100
AcDbCircle
 10
947.1922350416106
 20
1486.692757191168
 30
0.0
 40
3.000000000000056
100
AcDbArc
 50
270.0
 51
90.0
  0
LINE
  5
7D7
330
1F
100
AcDbEntity
  8
0
100
AcDbLine
 10
527.896411384602
 20
1409.464622207376
 30
0.0
 11
544.8916147337847
 21
1408.04935126157
 31
0.0
  0
ARC
  5
7D8
330
1F
100
AcDbEntity
  8
0
100
AcDbCircle
 10
658.2379422089513
 20
1437.577581808125
 30
0.0
 40
106.6116003211486
100
AcDbArc
 50
163.0452386242167
 51
196.9547613757832
  0
LINE
  5
7D9
330
1F
100
AcDbEntity
  8
0
100
AcDbLine
 10
551.494675236813
 20
1360.358272813849
 30
0.0
 11
532.13903507813
 21
1361.773543759656
 31
0.0
  0
LINE
  5
7DA
330
1F
100
AcDbEntity
  8
0
100
AcDbLine
 10
551.2644830752149
 20
1388.483770052039
 30
0.0
 11
533.5334074269856
 21
1388.483770052039
 31
0.0
  0
ARC
  5
7DB
330
1F
100
AcDbEntity
  8
0
100
AcDbCircle
 10
503.0231049699548
 20
1391.832280600967
 30
0.0
 40
27.47268131795497
100
AcDbArc
 50
327.7604243756004
 51
32.23957562439952
  0
ARC
  5
7DC
330
1F
100
AcDbEntity
  8
0
100
AcDbCircle
 10
595.185418563459
 20
1391.832280600967
 30
0.0
 40
41.59279291423044
100
AcDbArc
 50
159.3683311470978
 51
200.6316688529021
  0
ARC
  5
7DD
330
1F
100
AcDbEntity
  8
0
100
AcDbCircle
 10
609.1314758701307
 20
1355.559957023381
 30
0.0
 40
57.11966942967778
100
AcDbArc
 50
157.7625217859815
 51
202.2374782140184
  0
LINE
  5
7DE
330
1F
100
AcDbEntity
  8
0
100
AcDbLine
 10
549.8762149691363
 20
1435.878877854536
 30
0.0
 11
527.5838313857536
 21
1435.276808029966
 31
0.0
  0
LINE
  5
7DF
330
1F
100
AcDbEntity
  8
0
100
AcDbLine
 10
529.3913287769326
 20
1437.083017503678
 30
0.0
 11
549.8762149691363
 21
1440.695459340445
 31
0.0
  0
LINE
  5
7E0
330
1F
100
AcDbEntity
  8
0
100
AcDbLine
 10
530.9890657235817
 20
1479.281935516975
 30
0.0
 11
553.9890360224315
 21
1480.061054406996
 31
0.0
  0
LINE
  5
7E1
330
1F
100
AcDbEntity
  8
0
100
AcDbLine
 10
551.6500612639763
 20
1482.00883446504
 30
0.0
 11
530.2094139508524
 21
1482.00883446504
 31
0.0
  0
LINE
  5
7E2
330
1F
100
AcDbEntity
  8
0
100
AcDbLine
 10
546.7799641813842
 20
1410.408132356358
 30
0.0
 11
528.8405861083999
 21
1410.879893153183
 31
0.0
  0
ARC
  5
7E3
330
1F
100
AcDbEntity
  8
0
  6
CONTINUOUS
100
AcDbCircle
 10
883.2348199793148
 20
1379.136705024282
 30
0.0
 40
38.35657218847958
100
AcDbArc
 50
89.68770942205541
 51
208.1549699600303
  0
ARC
  5
7E4
330
1F
100
AcDbEntity
  8
0
  6
CONTINUOUS
100
AcDbCircle
 10
883.2348199793148
 20
1379.136705024282
 30
0.0
 40
44.35657218847958
100
AcDbArc
 50
89.74415837971804
 51
208.1280900118451
  0
LINE
  5
7E5
330
1F
100
AcDbEntity
  8
0
  6
CONTINUOUS
100
AcDbLine
 10
924.5101827159695
 20
1479.692757191167
 30
0.0
 11
924.5101827159695
 21
1389.948558848871
 31
0.0
  0
LINE
  5
7E6
330
1F
100
AcDbEntity
  8
0
  6
CONTINUOUS
100
AcDbLine
 10
936.5101827159694
 20
1479.692757191167
 30
0.0
 11
936.5101827159694
 21
1389.948558848871
 31
0.0
  0
ARC
  5
7E7
330
1F
100
AcDbEntity
  8
0
  6
CONTINUOUS
100
AcDbCircle
 10
884.5938229827758
 20
1383.635980180953
 30
0.0
 40
33.8737589960223
100
AcDbArc
 50
24.44661768658927
 51
91.66842354342925
  0
ARC
  5
7E8
330
1F
100
AcDbEntity
  8
0
  6
CONTINUOUS
100
AcDbCircle
 10
884.5938229827758
 20
1383.635980180953
 30
0.0
 40
39.8737589960223
100
AcDbArc
 50
24.44661768658927
 51
91.66842354342925
  0
ARC
  5
7E9
330
1F
100
AcDbEntity
  8
0
  6
CONTINUOUS
100
AcDbCircle
 10
892.7098762260618
 20
1373.991198504696
 30
0.0
 40
10.98638464699961
100
AcDbArc
 50
56.39627089675918
 51
141.8140803917553
  0
ARC
  5
7EA
330
1F
100
AcDbEntity
  8
0
  6
CONTINUOUS
100
AcDbCircle
 10
895.5614837976943
 20
1371.464572318315
 30
0.0
 40
14.79145401338622
100
AcDbArc
 50
140.9500733785048
 51
227.6990126930634
  0
ARC
  5
7EB
330
1F
100
AcDbEntity
  8
0
  6
CONTINUOUS
100
AcDbCircle
 10
894.4676399572243
 20
1370.293723513449
 30
0.0
 40
19.6644356743196
100
AcDbArc
 50
131.7377797665703
 51
228.2831806936129
  0
ARC
  5
7EC
330
1F
100
AcDbEntity
  8
0
  6
CONTINUOUS
100
AcDbCircle
 10
897.0921148125988
 20
1376.807937646458
 30
0.0
 40
26.38058376875362
100
AcDbArc
 50
233.4502932851103
 51
330.4747204371001
  0
LINE
  5
7ED
330
1F
100
AcDbEntity
  8
0
  6
CONTINUOUS
100
AcDbLine
 10
898.790244214121
 20
1383.14159591364
 30
0.0
 11
900.0982737450256
 21
1384.86441808994
 31
0.0
  0
ARC
  5
7EE
330
1F
100
AcDbEntity
  8
0
  6
CONTINUOUS
100
AcDbCircle
 10
890.685521623055
 20
1375.471552451395
 30
0.0
 40
13.29758727790373
100
AcDbArc
 50
44.93941112916744
 51
134.4307956862815
  0
ARC
  5
7EF
330
1F
100
AcDbEntity
  8
0
  6
CONTINUOUS
100
AcDbCircle
 10
897.5392987223756
 20
1376.201832200153
 30
0.0
 40
19.7020449873939
100
AcDbArc
 50
232.7232973074538
 51
330.3990958276485
  0
ARC
  5
7F0
330
1F
100
AcDbEntity
  8
0
100
AcDbCircle
 10
913.8281303903283
 20
1382.948558848871
 30
0.0
 40
3.000000000000056
100
AcDbArc
 50
90.0
 51
270.0
  0
LINE
  5
7F1
330
1F
100
AcDbEntity
  8
0
100
AcDbLine
 10
913.8281303903283
 20
1385.948558848871
 30
0.0
 11
913.8281303903283
 21
1389.948558848871
 31
0.0
  0
ARC
  5
7F2
330
1F
100
AcDbEntity
  8
0
  6
CONTINUOUS
100
AcDbCircle
 10
881.5318158322396
 20
1382.879105766204
 30
0.0
 40
36.97836688373008
100
AcDbArc
 50
11.02154342337706
 51
23.67580681720637
  0
ARC
  5
7F3
330
1F
100
AcDbEntity
  8
0
  6
CONTINUOUS
100
AcDbCircle
 10
881.5318158322396
 20
1382.879105766204
 30
0.0
 40
42.97836688373009
100
AcDbArc
 50
9.467529775253089
 51
23.67580681720637
  0
ARC
  5
7F4
330
1F
100
AcDbEntity
  8
0
  6
CONTINUOUS
100
AcDbCircle
 10
881.5318158322396
 20
1382.879105766204
 30
0.0
 40
36.97836688373008
100
AcDbArc
 50
333.6565070697603
 51
349.1976466665339
  0
ARC
  5
7F5
330
1F
100
AcDbEntity
  8
0
  6
CONTINUOUS
100
AcDbCircle
 10
881.5318158322396
 20
1382.879105766204
 30
0.0
 40
42.97836688373009
100
AcDbArc
 50
333.6565070697603
 51
350.7201565413737
  0
LINE
  5
7F6
330
1F
100
AcDbEntity
  8
0
100
AcDbLine
 10
913.8281303903283
 20
1375.948558848871
 30
0.0
 11
913.8281303903283
 21
1379.948558848871
 31
0.0
  0
LINE
  5
7F7
330
1F
100
AcDbEntity
  8
0
100
AcDbLine
 10
947.1922350416106
 20
1385.948558848871
 30
0.0
 11
947.1922350416106
 21
1389.948558848871
 31
0.0
  0
ARC
  5
7F8
330
1F
100
AcDbEntity
  8
0
  6
CONTINUOUS
100
AcDbCircle
 10
979.4885495996993
 20
1382.879105766204
 30
0.0
 40
36.97836688373008
100
AcDbArc
 50
156.3241931827936
 51
168.9784565766229
  0
LINE
  5
7F9
330
1F
100
AcDbEntity
  8
0
  6
CONTINUOUS
100
AcDbLine
 10
962.2301212178179
 20
1383.14159591364
 30
0.0
 11
960.9220916869151
 21
1384.86441808994
 31
0.0
  0
ARC
  5
7FA
330
1F
100
AcDbEntity
  8
0
100
AcDbCircle
 10
947.1922350416106
 20
1382.948558848871
 30
0.0
 40
3.000000000000056
100
AcDbArc
 50
270.0
 51
90.0
  0
ARC
  5
7FB
330
1F
100
AcDbEntity
  8
0
  6
CONTINUOUS
100
AcDbCircle
 10
979.4885495996993
 20
1382.879105766204
 30
0.0
 40
42.97836688373009
100
AcDbArc
 50
156.3241931827936
 51
170.5324702247469
  0
ARC
  5
7FC
330
1F
100
AcDbEntity
  8
0
  6
CONTINUOUS
100
AcDbCircle
 10
979.4885495996993
 20
1382.879105766204
 30
0.0
 40
42.97836688373009
100
AcDbArc
 50
189.2798434586262
 51
206.3434929302396
  0
ARC
  5
7FD
330
1F
100
AcDbEntity
  8
0
  6
CONTINUOUS
100
AcDbCircle
 10
979.4885495996993
 20
1382.879105766204
 30
0.0
 40
36.97836688373008
100
AcDbArc
 50
190.8023533334661
 51
206.3434929302396
  0
LINE
  5
7FE
330
1F
100
AcDbEntity
  8
0
100
AcDbLine
 10
947.1922350416106
 20
1375.948558848871
 30
0.0
 11
947.1922350416106
 21
1379.948558848871
 31
0.0
  0
LINE
  5
7FF
330
1F
100
AcDbEntity
  8
0
100
AcDbLine
 10
913.8281303903283
 20
1375.948558848871
 30
0.0
 11
947.1922350416106
 21
1375.948558848871
 31
0.0
  0
LINE
  5
800
330
1F
100
AcDbEntity
  8
0
100
AcDbLine
 10
947.1922350416106
 20
1389.948558848871
 30
0.0
 11
913.8281303903283
 21
1389.948558848871
 31
0.0
  0
LINE
  5
801
330
1F
100
AcDbEntity
  8
0
100
AcDbLine
 10
947.1922350416106
 20
1385.948558848871
 30
0.0
 11
913.8281303903283
 21
1385.948558848871
 31
0.0
  0
LINE
  5
802
330
1F
100
AcDbEntity
  8
0
100
AcDbLine
 10
947.1922350416106
 20
1379.94855884887
 30
0.0
 11
913.8281303903283
 21
1379.94855884887
 31
0.0
  0
POLYLINE
  5
803
330
1F
100
AcDbEntity
  8
0
  6
CONTINUOUS
100
AcDb2dPolyline
 66
     1
 10
0.0
 20
0.0
 30
0.0
  0
VERTEX
  5
115C
330
803
100
AcDbEntity
  8
0
  6
CONTINUOUS
100
AcDbVertex
100
AcDb2dVertex
 10
863.9752255734336
 20
1446.266279796175
 30
0.0
  0
VERTEX
  5
115D
330
803
100
AcDbEntity
  8
0
  6
CONTINUOUS
100
AcDbVertex
100
AcDb2dVertex
 10
864.1475318509863
 20
1447.927253137858
 30
0.0
 42
0.5016049534703276
  0
VERTEX
  5
115E
330
803
100
AcDbEntity
  8
0
  6
CONTINUOUS
100
AcDbVertex
100
AcDb2dVertex
 10
864.9598685791577
 20
1457.795963731508
 30
0.0
 42
0.5731451722580876
  0
VERTEX
  5
115F
330
803
100
AcDbEntity
  8
0
  6
CONTINUOUS
100
AcDbVertex
100
AcDb2dVertex
 10
844.698512545702
 20
1452.024252893175
 30
0.0
 42
0.1994211041236551
  0
VERTEX
  5
1160
330
803
100
AcDbEntity
  8
0
  6
CONTINUOUS
100
AcDbVertex
100
AcDb2dVertex
 10
845.9539799744277
 20
1439.656282676835
 30
0.0
 42
0.1912321573076029
  0
VERTEX
  5
1161
330
803
100
AcDbEntity
  8
0
  6
CONTINUOUS
100
AcDbVertex
100
AcDb2dVertex
 10
858.9594599611034
 20
1429.48695564639
 30
0.0
 42
0.143630861908326
  0
VERTEX
  5
1162
330
803
100
AcDbEntity
  8
0
  6
CONTINUOUS
100
AcDbVertex
100
AcDb2dVertex
 10
878.1690980174996
 20
1429.570108749464
 30
0.0
 42
0.2016233873508618
  0
VERTEX
  5
1163
330
803
100
AcDbEntity
  8
0
  6
CONTINUOUS
100
AcDbVertex
100
AcDb2dVertex
 10
909.1633295560811
 20
1454.48681393693
 30
0.0
 42
0.0544492341104313
  0
VERTEX
  5
1164
330
803
100
AcDbEntity
  8
0
  6
CONTINUOUS
100
AcDbVertex
100
AcDb2dVertex
 10
915.3892566887487
 20
1469.214806796389
 30
0.0
 42
0.056122523359716
  0
SEQEND
  5
1165
330
803
100
AcDbEntity
  8
0
  6
CONTINUOUS
  0
POLYLINE
  5
804
330
1F
100
AcDbEntity
  8
0
  6
CONTINUOUS
100
AcDb2dPolyline
 66
     1
 10
0.0
 20
0.0
 30
0.0
  0
VERTEX
  5
1166
330
804
100
AcDbEntity
  8
0
  6
CONTINUOUS
100
AcDbVertex
100
AcDb2dVertex
 10
863.9752255734336
 20
1446.266279796175
 30
0.0
 42
0.6244873880121949
  0
VERTEX
  5
1167
330
804
100
AcDbEntity
  8
0
  6
CONTINUOUS
100
AcDbVertex
100
AcDb2dVertex
 10
869.1224530120368
 20
1462.117208801051
 30
0.0
 42
0.5712699294635224
  0
VERTEX
  5
1168
330
804
100
AcDbEntity
  8
0
  6
CONTINUOUS
100
AcDbVertex
100
AcDb2dVertex
 10
838.9197158614759
 20
1453.641545015269
 30
0.0
 42
0.1992749000703595
  0
VERTEX
  5
1169
330
804
100
AcDbEntity
  8
0
  6
CONTINUOUS
100
AcDbVertex
100
AcDb2dVertex
 10
840.7239389469985
 20
1436.714384904451
 30
0.0
 42
0.1922899288213652
  0
VERTEX
  5
116A
330
804
100
AcDbEntity
  8
0
  6
CONTINUOUS
100
AcDbVertex
100
AcDb2dVertex
 10
857.2822644239048
 20
1423.726124056058
 30
0.0
 42
0.1435180749715141
  0
VERTEX
  5
116B
330
804
100
AcDbEntity
  8
0
  6
CONTINUOUS
100
AcDbVertex
100
AcDb2dVertex
 10
879.852366507567
 20
1423.810988931839
 30
0.0
 42
0.2013051193684176
  0
VERTEX
  5
116C
330
804
100
AcDbEntity
  8
0
  6
CONTINUOUS
100
AcDbVertex
100
AcDb2dVertex
 10
914.4222941684645
 20
1451.598099767745
 30
0.0
 42
0.0525451820212675
  0
VERTEX
  5
116D
330
804
100
AcDbEntity
  8
0
  6
CONTINUOUS
100
AcDbVertex
100
AcDb2dVertex
 10
921.0086233594163
 20
1467.050596464386
 30
0.0
  0
SEQEND
  5
116E
330
804
100
AcDbEntity
  8
0
  6
CONTINUOUS
  0
LINE
  5
805
330
1F
100
AcDbEntity
  8
0
100
AcDbLine
 10
913.8281303903283
 20
1479.692757191167
 30
0.0
 11
913.8281303903283
 21
1483.692757191167
 31
0.0
  0
POLYLINE
  5
806
330
1F
100
AcDbEntity
  8
0
  6
CONTINUOUS
100
AcDb2dPolyline
 66
     1
 10
0.0
 20
0.0
 30
0.0
  0
VERTEX
  5
116F
330
806
100
AcDbEntity
  8
0
  6
CONTINUOUS
100
AcDbVertex
100
AcDb2dVertex
 10
917.5843534012427
 20
1479.692757191167
 30
0.0
 42
-0.0363948171192986
  0
VERTEX
  5
1170
330
806
100
AcDbEntity
  8
0
  6
CONTINUOUS
100
AcDbVertex
100
AcDb2dVertex
 10
915.3892566887487
 20
1469.214806796389
 30
0.0
  0
SEQEND
  5
1171
330
806
100
AcDbEntity
  8
0
  6
CONTINUOUS
  0
POLYLINE
  5
807
330
1F
100
AcDbEntity
  8
0
  6
CONTINUOUS
100
AcDb2dPolyline
 66
     1
 10
0.0
 20
0.0
 30
0.0
  0
VERTEX
  5
1172
330
807
100
AcDbEntity
  8
0
  6
CONTINUOUS
100
AcDbVertex
100
AcDb2dVertex
 10
923.6343019192089
 20
1479.692757191167
 30
0.0
 42
-0.0406020746902253
  0
VERTEX
  5
1173
330
807
100
AcDbEntity
  8
0
  6
CONTINUOUS
100
AcDbVertex
100
AcDb2dVertex
 10
921.0086233594163
 20
1467.050596464386
 30
0.0
  0
SEQEND
  5
1174
330
807
100
AcDbEntity
  8
0
  6
CONTINUOUS
  0
LINE
  5
808
330
1F
100
AcDbEntity
  8
0
100
AcDbLine
 10
947.1922350416106
 20
1479.692757191167
 30
0.0
 11
947.1922350416106
 21
1483.692757191167
 31
0.0
  0
POLYLINE
  5
809
330
1F
100
AcDbEntity
  8
0
  6
CONTINUOUS
100
AcDb2dPolyline
 66
     1
 10
0.0
 20
0.0
 30
0.0
  0
VERTEX
  5
1175
330
809
100
AcDbEntity
  8
0
  6
CONTINUOUS
100
AcDbVertex
100
AcDb2dVertex
 10
943.4360120306962
 20
1479.692757191167
 30
0.0
 42
0.0363948171192986
  0
VERTEX
  5
1176
330
809
100
AcDbEntity
  8
0
  6
CONTINUOUS
100
AcDbVertex
100
AcDb2dVertex
 10
945.631108743192
 20
1469.214806796389
 30
0.0
  0
SEQEND
  5
1177
330
809
100
AcDbEntity
  8
0
  6
CONTINUOUS
  0
POLYLINE
  5
80A
330
1F
100
AcDbEntity
  8
0
  6
CONTINUOUS
100
AcDb2dPolyline
 66
     1
 10
0.0
 20
0.0
 30
0.0
  0
VERTEX
  5
1178
330
80A
100
AcDbEntity
  8
0
  6
CONTINUOUS
100
AcDbVertex
100
AcDb2dVertex
 10
937.38606351273
 20
1479.692757191167
 30
0.0
 42
0.0406020746902253
  0
VERTEX
  5
1179
330
80A
100
AcDbEntity
  8
0
  6
CONTINUOUS
100
AcDbVertex
100
AcDb2dVertex
 10
940.0117420725225
 20
1467.050596464386
 30
0.0
  0
SEQEND
  5
117A
330
80A
100
AcDbEntity
  8
0
  6
CONTINUOUS
  0
LINE
  5
80B
330
1F
100
AcDbEntity
  8
0
100
AcDbLine
 10
913.8281303903283
 20
1479.692757191167
 30
0.0
 11
947.1922350416106
 21
1479.692757191167
 31
0.0
  0
LINE
  5
80C
330
1F
100
AcDbEntity
  8
0
100
AcDbLine
 10
947.1922350416106
 20
1483.692757191167
 30
0.0
 11
913.8281303903283
 21
1483.692757191167
 31
0.0
  0
ARC
  5
80D
330
1F
100
AcDbEntity
  8
0
100
AcDbCircle
 10
628.1637749139451
 20
1569.835551244968
 30
0.0
 40
74.24670187285427
100
AcDbArc
 50
165.5674138149892
 51
194.4325861850107
  0
ARC
  5
80E
330
1F
100
AcDbEntity
  8
0
100
AcDbCircle
 10
478.5459203546822
 20
1569.835551244968
 30
0.0
 40
51.17711403260225
100
AcDbArc
 50
338.8019222469722
 51
21.1980777530278
  0
LINE
  5
80F
330
1F
100
AcDbEntity
  8
0
100
AcDbLine
 10
552.322266699645
 20
1541.498716706029
 30
0.0
 11
530.1012483240344
 21
1544.459441734004
 31
0.0
  0
LINE
  5
810
330
1F
100
AcDbEntity
  8
0
100
AcDbLine
 10
550.7730915315339
 20
1510.072862373526
 30
0.0
 11
528.3856450590181
 21
1515.960150085558
 31
0.0
  0
LINE
  5
811
330
1F
100
AcDbEntity
  8
0
100
AcDbLine
 10
528.3856450590181
 20
1515.960150085558
 30
0.0
 11
549.9875687991886
 21
1514.782699409955
 31
0.0
  0
ARC
  5
812
330
1F
100
AcDbEntity
  8
0
100
AcDbCircle
 10
611.5046238306375
 20
1513.617803538799
 30
0.0
 40
59.25027723911768
100
AcDbArc
 50
158.8106919803585
 51
201.1893080196414
  0
LINE
  5
813
330
1F
100
AcDbEntity
  8
0
100
AcDbLine
 10
531.582654733146
 20
1541.498716706029
 30
0.0
 11
552.8160688360156
 21
1540.018359914378
 31
0.0
  0
ARC
  5
814
330
1F
100
AcDbEntity
  8
0
100
AcDbCircle
 10
514.021277282364
 20
1543.182050466024
 30
0.0
 40
14.70319572620801
100
AcDbArc
 50
326.3458272488429
 51
33.65417275115706
  0
ARC
  5
815
330
1F
100
AcDbEntity
  8
0
100
AcDbCircle
 10
573.236620797307
 20
1543.182050466024
 30
0.0
 40
18.83062952425546
100
AcDbArc
 50
154.3603398614806
 51
205.6396601385193
  0
LINE
  5
816
330
1F
100
AcDbEntity
  8
0
100
AcDbLine
 10
551.3381616743579
 20
1571.653434283436
 30
0.0
 11
532.5737388130772
 21
1568.692720700133
 31
0.0
  0
LINE
  5
817
330
1F
100
AcDbEntity
  8
0
100
AcDbLine
 10
532.0799561169703
 20
1567.705812357474
 30
0.0
 11
552.3257659470989
 21
1568.692720700133
 31
0.0
  0
LINE
  5
818
330
1F
100
AcDbEntity
  8
0
100
AcDbLine
 10
535.1021978210963
 20
1618.748874811871
 30
0.0
 11
550.6227016521195
 21
1618.748874811871
 31
0.0
  0
LINE
  5
819
330
1F
100
AcDbEntity
  8
0
100
AcDbLine
 10
550.6227016521195
 20
1618.748874811871
 30
0.0
 11
535.1021978210963
 21
1616.224065870122
 31
0.0
  0
ARC
  5
81A
330
1F
100
AcDbEntity
  8
0
100
AcDbCircle
 10
486.6785832204048
 20
1614.2535051938
 30
0.0
 40
47.3092865871033
100
AcDbArc
 50
326.7886702846587
 51
33.21132971534122
  0
LINE
  5
81B
330
1F
100
AcDbEntity
  8
0
100
AcDbLine
 10
913.8281303903283
 20
1489.692757191168
 30
0.0
 11
913.8281303903283
 21
1493.692757191167
 31
0.0
  0
LINE
  5
81C
330
1F
100
AcDbEntity
  8
0
100
AcDbLine
 10
947.1922350416106
 20
1489.692757191168
 30
0.0
 11
947.1922350416106
 21
1493.692757191167
 31
0.0
  0
LINE
  5
81D
330
1F
100
AcDbEntity
  8
0
100
AcDbLine
 10
947.1922350416106
 20
1489.692757191168
 30
0.0
 11
913.8281303903283
 21
1489.692757191168
 31
0.0
  0
LINE
  5
81E
330
1F
100
AcDbEntity
  8
0
100
AcDbLine
 10
947.1922350416106
 20
1493.692757191167
 30
0.0
 11
913.8281303903283
 21
1493.692757191167
 31
0.0
  0
POLYLINE
  5
81F
330
1F
100
AcDbEntity
  8
0
  6
CONTINUOUS
100
AcDb2dPolyline
 66
     1
 10
0.0
 20
0.0
 30
0.0
  0
VERTEX
  5
117B
330
81F
100
AcDbEntity
  8
0
  6
CONTINUOUS
100
AcDbVertex
100
AcDb2dVertex
 10
884.5073051392853
 20
1516.292854286734
 30
0.0
 42
-0.624487388012175
  0
VERTEX
  5
117C
330
81F
100
AcDbEntity
  8
0
  6
CONTINUOUS
100
AcDbVertex
100
AcDb2dVertex
 10
880.2803066231215
 20
1500.172110378135
 30
0.0
 42
-0.5712699294635224
  0
VERTEX
  5
117D
330
81F
100
AcDbEntity
  8
0
  6
CONTINUOUS
100
AcDbVertex
100
AcDb2dVertex
 10
859.4361969762656
 20
1523.614919532018
 30
0.0
 42
-0.1992749000703595
  0
VERTEX
  5
117E
330
81F
100
AcDbEntity
  8
0
  6
CONTINUOUS
100
AcDbVertex
100
AcDb2dVertex
 10
870.0951992736779
 20
1536.887810716058
 30
0.0
 42
-0.1922899288213652
  0
VERTEX
  5
117F
330
81F
100
AcDbEntity
  8
0
  6
CONTINUOUS
100
AcDbVertex
100
AcDb2dVertex
 10
891.0453910830444
 20
1538.878420073978
 30
0.0
 42
-0.1435180749715141
  0
VERTEX
  5
1180
330
81F
100
AcDbEntity
  8
0
  6
CONTINUOUS
100
AcDbVertex
100
AcDb2dVertex
 10
909.9962285411846
 20
1526.6194450047
 30
0.0
 42
-0.1601386182095308
  0
VERTEX
  5
1181
330
81F
100
AcDbEntity
  8
0
  6
CONTINUOUS
100
AcDbVertex
100
AcDb2dVertex
 10
924.0357338332785
 20
1493.692757191167
 30
0.0
 42
-0.1601386182095308
  0
SEQEND
  5
1182
330
81F
100
AcDbEntity
  8
0
  6
CONTINUOUS
  0
POLYLINE
  5
820
330
1F
100
AcDbEntity
  8
0
  6
CONTINUOUS
100
AcDb2dPolyline
 66
     1
 10
0.0
 20
0.0
 30
0.0
  0
VERTEX
  5
1183
330
820
100
AcDbEntity
  8
0
  6
CONTINUOUS
100
AcDbVertex
100
AcDb2dVertex
 10
884.5073051392853
 20
1516.292854286734
 30
0.0
  0
VERTEX
  5
1184
330
820
100
AcDbEntity
  8
0
  6
CONTINUOUS
100
AcDbVertex
100
AcDb2dVertex
 10
883.7554279224358
 20
1514.801813527451
 30
0.0
 42
-0.5016049534703276
  0
VERTEX
  5
1185
330
820
100
AcDbEntity
  8
0
  6
CONTINUOUS
100
AcDbVertex
100
AcDb2dVertex
 10
879.1101816668257
 20
1506.056927766853
 30
0.0
 42
-0.5731451722580876
  0
VERTEX
  5
1186
330
820
100
AcDbEntity
  8
0
  6
CONTINUOUS
100
AcDbVertex
100
AcDb2dVertex
 10
865.1733743082029
 20
1521.855680722843
 30
0.0
 42
-0.1994211041236551
  0
VERTEX
  5
1187
330
820
100
AcDbEntity
  8
0
  6
CONTINUOUS
100
AcDbVertex
100
AcDb2dVertex
 10
872.908603146984
 20
1531.587541826897
 30
0.0
 42
-0.1912321573076029
  0
VERTEX
  5
1188
330
820
100
AcDbEntity
  8
0
  6
CONTINUOUS
100
AcDbVertex
100
AcDb2dVertex
 10
889.3462723132804
 20
1533.124016465574
 30
0.0
 42
-0.143630861908326
  0
VERTEX
  5
1189
330
820
100
AcDbEntity
  8
0
  6
CONTINUOUS
100
AcDbVertex
100
AcDb2dVertex
 10
905.4696196158664
 20
1522.681086778148
 30
0.0
 42
-0.1577079741972947
  0
VERTEX
  5
118A
330
820
100
AcDbEntity
  8
0
  6
CONTINUOUS
100
AcDbVertex
100
AcDb2dVertex
 10
918.0111683613747
 20
1493.692757191167
 30
0.0
 42
-0.1577079741972947
  0
SEQEND
  5
118B
330
820
100
AcDbEntity
  8
0
  6
CONTINUOUS
  0
LINE
  5
821
330
1F
100
AcDbEntity
  8
0
100
AcDbLine
 10
1368.012191971757
 20
1330.398343542452
 30
0.0
 11
1350.263445123892
 21
1328.055825325622
 31
0.0
  0
LINE
  5
822
330
1F
100
AcDbEntity
  8
0
100
AcDbLine
 10
1333.012191971757
 20
1330.398343542452
 30
0.0
 11
1315.263445123892
 21
1328.055825325622
 31
0.0
  0
ARC
  5
823
330
1F
100
AcDbEntity
  8
0
100
AcDbCircle
 10
1300.178583220404
 20
1308.030574614524
 30
0.0
 40
47.3092865871033
100
AcDbArc
 50
326.7886702846587
 51
33.21132971534122
  0
ARC
  5
824
330
1F
100
AcDbEntity
  8
0
100
AcDbCircle
 10
1265.178583220404
 20
1308.030574614524
 30
0.0
 40
47.3092865871033
100
AcDbArc
 50
326.7886702846587
 51
33.21132971534122
  0
LINE
  5
825
330
1F
100
AcDbEntity
  8
0
  6
CONTINUOUS
100
AcDbLine
 10
1662.916805760974
 20
1361.037850243469
 30
0.0
 11
1725.716011359366
 21
1241.784637142628
 31
0.0
  0
LINE
  5
826
330
1F
100
AcDbEntity
  8
0
  6
CONTINUOUS
100
AcDbLine
 10
1657.616943479671
 20
1358.225051945937
 30
0.0
 11
1720.314239569334
 21
1239.165360980378
 31
0.0
  0
LINE
  5
827
330
1F
100
AcDbEntity
  8
0
  6
CONTINUOUS
100
AcDbLine
 10
1830.403421952302
 20
1358.225051945937
 30
0.0
 11
1767.706125862638
 21
1239.165360980378
 31
0.0
  0
LINE
  5
828
330
1F
100
AcDbEntity
  8
0
  6
CONTINUOUS
100
AcDbLine
 10
1825.103559671001
 20
1361.037850243469
 30
0.0
 11
1762.304354072609
 21
1241.784637142628
 31
0.0
  0
LINE
  5
829
330
1F
100
AcDbEntity
  8
0
  6
CONTINUOUS
100
AcDbLine
 10
1738.010182715987
 20
1375.948558848871
 30
0.0
 11
1738.010182715987
 21
1180.953632783235
 31
0.0
  0
LINE
  5
82A
330
1F
100
AcDbEntity
  8
0
  6
CONTINUOUS
100
AcDbLine
 10
1750.010182715987
 20
1375.948558848871
 30
0.0
 11
1750.010182715987
 21
1180.953632783235
 31
0.0
  0
ARC
  5
82B
330
1F
100
AcDbEntity
  8
0
100
AcDbCircle
 10
1322.783744634639
 20
1175.875590256302
 30
0.0
 40
18.83062952425546
100
AcDbArc
 50
334.3603398614806
 51
25.63966013851934
  0
ARC
  5
82C
330
1F
100
AcDbEntity
  8
0
100
AcDbCircle
 10
1346.999088149582
 20
1175.875590256302
 30
0.0
 40
14.70319572620801
100
AcDbArc
 50
146.3458272488429
 51
213.654172751157
  0
ARC
  5
82D
330
1F
100
AcDbEntity
  8
0
100
AcDbCircle
 10
1381.999088149582
 20
1175.875590256302
 30
0.0
 40
14.70319572620801
100
AcDbArc
 50
146.3458272488429
 51
213.654172751157
  0
ARC
  5
82E
330
1F
100
AcDbEntity
  8
0
100
AcDbCircle
 10
1287.783744634639
 20
1175.875590256302
 30
0.0
 40
18.83062952425546
100
AcDbArc
 50
334.3603398614806
 51
25.63966013851934
  0
ARC
  5
82F
330
1F
100
AcDbEntity
  8
0
100
AcDbCircle
 10
1237.782423222994
 20
1070.271121598403
 30
0.0
 40
106.6116003211486
100
AcDbArc
 50
343.0452386242168
 51
16.9547613757832
  0
ARC
  5
830
330
1F
100
AcDbEntity
  8
0
100
AcDbCircle
 10
1202.782423222994
 20
1070.271121598403
 30
0.0
 40
106.6116003211486
100
AcDbArc
 50
343.0452386242168
 51
16.9547613757832
  0
LINE
  5
831
330
1F
100
AcDbEntity
  8
0
100
AcDbLine
 10
1368.123954047344
 20
1042.158161997655
 30
0.0
 11
1351.128750698161
 21
1040.742891051848
 31
0.0
  0
LINE
  5
832
330
1F
100
AcDbEntity
  8
0
100
AcDbLine
 10
1349.240401250562
 20
1043.101672146637
 30
0.0
 11
1367.179779323546
 21
1043.573432943462
 31
0.0
  0
LINE
  5
833
330
1F
100
AcDbEntity
  8
0
100
AcDbLine
 10
1346.144150462809
 20
1068.572417644815
 30
0.0
 11
1368.436534046192
 21
1067.970347820245
 31
0.0
  0
LINE
  5
834
330
1F
100
AcDbEntity
  8
0
100
AcDbLine
 10
1366.629036655013
 20
1069.776557293957
 30
0.0
 11
1346.144150462809
 21
1073.388999130724
 31
0.0
  0
LINE
  5
835
330
1F
100
AcDbEntity
  8
0
100
AcDbLine
 10
1333.123954047344
 20
1042.158161997655
 30
0.0
 11
1316.128750698161
 21
1040.742891051848
 31
0.0
  0
LINE
  5
836
330
1F
100
AcDbEntity
  8
0
100
AcDbLine
 10
1314.240401250562
 20
1043.101672146637
 30
0.0
 11
1332.179779323546
 21
1043.573432943462
 31
0.0
  0
LINE
  5
837
330
1F
100
AcDbEntity
  8
0
100
AcDbLine
 10
1311.144150462809
 20
1068.572417644815
 30
0.0
 11
1333.436534046192
 21
1067.970347820245
 31
0.0
  0
LINE
  5
838
330
1F
100
AcDbEntity
  8
0
100
AcDbLine
 10
1331.629036655013
 20
1069.776557293957
 30
0.0
 11
1311.144150462809
 21
1073.388999130724
 31
0.0
  0
LINE
  5
839
330
1F
100
AcDbEntity
  8
0
100
AcDbLine
 10
1344.755882356731
 20
1021.177309842318
 30
0.0
 11
1362.48695800496
 21
1021.177309842318
 31
0.0
  0
LINE
  5
83A
330
1F
100
AcDbEntity
  8
0
100
AcDbLine
 10
1309.755882356731
 20
1021.177309842318
 30
0.0
 11
1327.48695800496
 21
1021.177309842318
 31
0.0
  0
LINE
  5
83B
330
1F
100
AcDbEntity
  8
0
100
AcDbLine
 10
1344.370304167969
 20
1114.702374255319
 30
0.0
 11
1365.810951481093
 21
1114.702374255319
 31
0.0
  0
LINE
  5
83C
330
1F
100
AcDbEntity
  8
0
100
AcDbLine
 10
1345.247273900412
 20
1142.766402163805
 30
0.0
 11
1367.634720372928
 21
1148.653689875837
 31
0.0
  0
LINE
  5
83D
330
1F
100
AcDbEntity
  8
0
100
AcDbLine
 10
1367.634720372928
 20
1148.653689875837
 30
0.0
 11
1346.032796632757
 21
1147.476239200234
 31
0.0
  0
LINE
  5
83E
330
1F
100
AcDbEntity
  8
0
100
AcDbLine
 10
1365.031299708364
 20
1111.975475307254
 30
0.0
 11
1342.031329409514
 21
1112.754594197275
 31
0.0
  0
ARC
  5
83F
330
1F
100
AcDbEntity
  8
0
100
AcDbCircle
 10
1363.175892523685
 20
1113.128062434397
 30
0.0
 40
30.75581818224811
100
AcDbArc
 50
157.5050578834445
 51
202.4949421165554
  0
LINE
  5
840
330
1F
100
AcDbEntity
  8
0
100
AcDbLine
 10
1310.247273900412
 20
1142.766402163805
 30
0.0
 11
1332.634720372928
 21
1148.653689875837
 31
0.0
  0
LINE
  5
841
330
1F
100
AcDbEntity
  8
0
100
AcDbLine
 10
1332.634720372928
 20
1148.653689875837
 30
0.0
 11
1311.032796632757
 21
1147.476239200234
 31
0.0
  0
LINE
  5
842
330
1F
100
AcDbEntity
  8
0
100
AcDbLine
 10
1330.031299708364
 20
1111.975475307254
 30
0.0
 11
1307.031329409514
 21
1112.754594197275
 31
0.0
  0
LINE
  5
843
330
1F
100
AcDbEntity
  8
0
100
AcDbLine
 10
1309.37030416797
 20
1114.702374255319
 30
0.0
 11
1330.810951481093
 21
1114.702374255319
 31
0.0
  0
ARC
  5
844
330
1F
100
AcDbEntity
  8
0
100
AcDbCircle
 10
1249.515741601308
 20
1146.311343329078
 30
0.0
 40
59.25027723911768
100
AcDbArc
 50
338.8106919803585
 51
21.18930801964145
  0
ARC
  5
845
330
1F
100
AcDbEntity
  8
0
100
AcDbCircle
 10
1284.515741601308
 20
1146.311343329078
 30
0.0
 40
59.25027723911768
100
AcDbArc
 50
338.8106919803585
 51
21.18930801964145
  0
ARC
  5
846
330
1F
100
AcDbEntity
  8
0
100
AcDbCircle
 10
1398.175892523685
 20
1113.128062434397
 30
0.0
 40
30.75581818224811
100
AcDbArc
 50
157.5050578834445
 51
202.4949421165554
  0
ARC
  5
847
330
1F
100
AcDbEntity
  8
0
100
AcDbCircle
 10
1267.856590518001
 20
1263.612620665692
 30
0.0
 40
74.24670187285427
100
AcDbArc
 50
345.5674138149892
 51
14.43258618501076
  0
ARC
  5
848
330
1F
100
AcDbEntity
  8
0
100
AcDbCircle
 10
1382.474445077264
 20
1263.612620665692
 30
0.0
 40
51.17711403260225
100
AcDbArc
 50
158.8019222469722
 51
201.1980777530278
  0
ARC
  5
849
330
1F
100
AcDbEntity
  8
0
100
AcDbCircle
 10
1417.474445077264
 20
1263.612620665692
 30
0.0
 40
51.17711403260225
100
AcDbArc
 50
158.8019222469722
 51
201.1980777530278
  0
ARC
  5
84A
330
1F
100
AcDbEntity
  8
0
100
AcDbCircle
 10
1232.856590518001
 20
1263.612620665692
 30
0.0
 40
74.24670187285427
100
AcDbArc
 50
345.5674138149892
 51
14.43258618501076
  0
LINE
  5
84B
330
1F
100
AcDbEntity
  8
0
100
AcDbLine
 10
1343.698098732301
 20
1174.192256496308
 30
0.0
 11
1365.919117107911
 21
1177.152981524283
 31
0.0
  0
ARC
  5
84C
330
1F
100
AcDbEntity
  8
0
100
AcDbCircle
 10
1267.856590518001
 20
1202.529091035247
 30
0.0
 40
74.24670187285427
100
AcDbArc
 50
345.5674138149892
 51
14.43258618501076
  0
ARC
  5
84D
330
1F
100
AcDbEntity
  8
0
100
AcDbCircle
 10
1382.474445077264
 20
1202.529091035247
 30
0.0
 40
51.17711403260225
100
AcDbArc
 50
158.8019222469722
 51
201.1980777530278
  0
LINE
  5
84E
330
1F
100
AcDbEntity
  8
0
100
AcDbLine
 10
1364.4377106988
 20
1174.192256496308
 30
0.0
 11
1343.20429659593
 21
1172.711899704656
 31
0.0
  0
LINE
  5
84F
330
1F
100
AcDbEntity
  8
0
100
AcDbLine
 10
1364.719205716109
 20
1234.667742183749
 30
0.0
 11
1344.307376034609
 21
1234.667742183749
 31
0.0
  0
LINE
  5
850
330
1F
100
AcDbEntity
  8
0
100
AcDbLine
 10
1344.307376034609
 20
1237.628673215806
 30
0.0
 11
1362.743880529044
 21
1236.641696205119
 31
0.0
  0
LINE
  5
851
330
1F
100
AcDbEntity
  8
0
100
AcDbLine
 10
1363.940409314976
 20
1200.399352147753
 30
0.0
 11
1343.694599484847
 21
1201.386260490412
 31
0.0
  0
LINE
  5
852
330
1F
100
AcDbEntity
  8
0
100
AcDbLine
 10
1344.682203757588
 20
1204.346974073715
 30
0.0
 11
1363.446626618869
 21
1201.386260490412
 31
0.0
  0
ARC
  5
853
330
1F
100
AcDbEntity
  8
0
100
AcDbCircle
 10
1232.856590518001
 20
1202.529091035247
 30
0.0
 40
74.24670187285427
100
AcDbArc
 50
345.5674138149892
 51
14.43258618501076
  0
LINE
  5
854
330
1F
100
AcDbEntity
  8
0
100
AcDbLine
 10
1308.698098732301
 20
1174.192256496308
 30
0.0
 11
1330.919117107911
 21
1177.152981524283
 31
0.0
  0
LINE
  5
855
330
1F
100
AcDbEntity
  8
0
100
AcDbLine
 10
1329.4377106988
 20
1174.192256496308
 30
0.0
 11
1308.20429659593
 21
1172.711899704656
 31
0.0
  0
LINE
  5
856
330
1F
100
AcDbEntity
  8
0
100
AcDbLine
 10
1329.719205716108
 20
1234.667742183749
 30
0.0
 11
1309.307376034609
 21
1234.667742183749
 31
0.0
  0
LINE
  5
857
330
1F
100
AcDbEntity
  8
0
100
AcDbLine
 10
1309.307376034609
 20
1237.628673215806
 30
0.0
 11
1327.743880529044
 21
1236.641696205119
 31
0.0
  0
LINE
  5
858
330
1F
100
AcDbEntity
  8
0
100
AcDbLine
 10
1328.940409314975
 20
1200.399352147753
 30
0.0
 11
1308.694599484847
 21
1201.386260490412
 31
0.0
  0
LINE
  5
859
330
1F
100
AcDbEntity
  8
0
100
AcDbLine
 10
1309.682203757588
 20
1204.346974073715
 30
0.0
 11
1328.446626618869
 21
1201.386260490412
 31
0.0
  0
ARC
  5
85A
330
1F
100
AcDbEntity
  8
0
100
AcDbCircle
 10
1417.474445077264
 20
1202.529091035247
 30
0.0
 40
51.17711403260225
100
AcDbArc
 50
158.8019222469722
 51
201.1980777530278
  0
LINE
  5
85B
330
1F
100
AcDbEntity
  8
0
100
AcDbLine
 10
1350.933220526608
 20
1326.717233677715
 30
0.0
 11
1368.012191971757
 21
1327.051887312027
 31
0.0
  0
LINE
  5
85C
330
1F
100
AcDbEntity
  8
0
100
AcDbLine
 10
1315.933220526608
 20
1326.717233677715
 30
0.0
 11
1333.012191971757
 21
1327.051887312027
 31
0.0
  0
LINE
  5
85D
330
1F
100
AcDbEntity
  8
0
100
AcDbLine
 10
1343.978485654582
 20
1263.656190529439
 30
0.0
 11
1364.719536200588
 21
1263.327202007433
 31
0.0
  0
LINE
  5
85E
330
1F
100
AcDbEntity
  8
0
100
AcDbLine
 10
1364.06109447157
 20
1262.340224996748
 30
0.0
 11
1344.636927383603
 21
1261.35324798606
 31
0.0
  0
LINE
  5
85F
330
1F
100
AcDbEntity
  8
0
100
AcDbLine
 10
1329.06109447157
 20
1262.340224996748
 30
0.0
 11
1309.636927383603
 21
1261.35324798606
 31
0.0
  0
LINE
  5
860
330
1F
100
AcDbEntity
  8
0
100
AcDbLine
 10
1308.978485654582
 20
1263.656190529439
 30
0.0
 11
1329.719536200588
 21
1263.327202007433
 31
0.0
  0
LINE
  5
861
330
1F
100
AcDbEntity
  8
0
100
AcDbLine
 10
1721.634796389239
 20
1166.953632783235
 30
0.0
 11
1721.634796389239
 21
1170.953632783235
 31
0.0
  0
LINE
  5
862
330
1F
100
AcDbEntity
  8
0
100
AcDbLine
 10
1766.385569042736
 20
1166.953632783235
 30
0.0
 11
1766.385569042736
 21
1170.953632783235
 31
0.0
  0
LINE
  5
863
330
1F
100
AcDbEntity
  8
0
100
AcDbLine
 10
1766.385569042736
 20
1166.953632783235
 30
0.0
 11
1721.634796389239
 21
1166.953632783235
 31
0.0
  0
POLYLINE
  5
864
330
1F
100
AcDbEntity
  8
0
  6
CONTINUOUS
100
AcDb2dPolyline
 66
     1
 10
0.0
 20
0.0
 30
0.0
  0
VERTEX
  5
118C
330
864
100
AcDbEntity
  8
0
  6
CONTINUOUS
100
AcDbVertex
100
AcDb2dVertex
 10
1804.890528239208
 20
1137.466349292338
 30
0.0
 42
-0.6244873880121875
  0
VERTEX
  5
118D
330
864
100
AcDbEntity
  8
0
  6
CONTINUOUS
100
AcDbVertex
100
AcDb2dVertex
 10
1804.411043789
 20
1154.125160633017
 30
0.0
 42
-0.5712699294635224
  0
VERTEX
  5
118E
330
864
100
AcDbEntity
  8
0
  6
CONTINUOUS
100
AcDbVertex
100
AcDb2dVertex
 10
1831.00895728061
 20
1137.494069090718
 30
0.0
 42
-0.1992749000703595
  0
VERTEX
  5
118F
330
864
100
AcDbEntity
  8
0
  6
CONTINUOUS
100
AcDbVertex
100
AcDb2dVertex
 10
1824.515004933714
 20
1121.758359596837
 30
0.0
 42
-0.1922899288213652
  0
VERTEX
  5
1190
330
864
100
AcDbEntity
  8
0
  6
CONTINUOUS
100
AcDbVertex
100
AcDb2dVertex
 10
1804.971225825513
 20
1113.953632783235
 30
0.0
 42
-0.1435180749715141
  0
VERTEX
  5
1191
330
864
100
AcDbEntity
  8
0
  6
CONTINUOUS
100
AcDbVertex
100
AcDb2dVertex
 10
1783.336777719326
 20
1120.385379455384
 30
0.0
 42
-0.2013051193684176
  0
VERTEX
  5
1192
330
864
100
AcDbEntity
  8
0
  6
CONTINUOUS
100
AcDbVertex
100
AcDb2dVertex
 10
1757.981554380313
 20
1156.776533277645
 30
0.0
 42
-0.0321832401292304
  0
VERTEX
  5
1193
330
864
100
AcDbEntity
  8
0
  6
CONTINUOUS
100
AcDbVertex
100
AcDb2dVertex
 10
1756.356386353369
 20
1166.953632783235
 30
0.0
 42
-0.0321832401292304
  0
SEQEND
  5
1194
330
864
100
AcDbEntity
  8
0
  6
CONTINUOUS
  0
POLYLINE
  5
865
330
1F
100
AcDbEntity
  8
0
  6
CONTINUOUS
100
AcDb2dPolyline
 66
     1
 10
0.0
 20
0.0
 30
0.0
  0
VERTEX
  5
1195
330
865
100
AcDbEntity
  8
0
  6
CONTINUOUS
100
AcDbVertex
100
AcDb2dVertex
 10
1804.890528239208
 20
1137.466349292338
 30
0.0
  0
VERTEX
  5
1196
330
865
100
AcDbEntity
  8
0
  6
CONTINUOUS
100
AcDbVertex
100
AcDb2dVertex
 10
1805.192513154493
 20
1139.108703397275
 30
0.0
 42
-0.5016049534703276
  0
VERTEX
  5
1197
330
865
100
AcDbEntity
  8
0
  6
CONTINUOUS
100
AcDbVertex
100
AcDb2dVertex
 10
1807.189647207388
 20
1148.807300992594
 30
0.0
 42
-0.5731451722580876
  0
VERTEX
  5
1198
330
865
100
AcDbEntity
  8
0
  6
CONTINUOUS
100
AcDbVertex
100
AcDb2dVertex
 10
1825.008569404174
 20
1137.56803028402
 30
0.0
 42
-0.1994211041236551
  0
VERTEX
  5
1199
330
865
100
AcDbEntity
  8
0
  6
CONTINUOUS
100
AcDbVertex
100
AcDb2dVertex
 10
1820.323975221471
 20
1126.052933103349
 30
0.0
 42
-0.1912321573076029
  0
VERTEX
  5
119A
330
865
100
AcDbEntity
  8
0
  6
CONTINUOUS
100
AcDbVertex
100
AcDb2dVertex
 10
1804.982648906073
 20
1119.953635699518
 30
0.0
 42
-0.143630861908326
  0
VERTEX
  5
119B
330
865
100
AcDbEntity
  8
0
  6
CONTINUOUS
100
AcDbVertex
100
AcDb2dVertex
 10
1786.572428746771
 20
1125.438241645472
 30
0.0
 42
-0.2016233873508618
  0
VERTEX
  5
119C
330
865
100
AcDbEntity
  8
0
  6
CONTINUOUS
100
AcDbVertex
100
AcDb2dVertex
 10
1763.840836648389
 20
1158.068891451122
 30
0.0
 42
-0.0305957625576657
  0
VERTEX
  5
119D
330
865
100
AcDbEntity
  8
0
  6
CONTINUOUS
100
AcDbVertex
100
AcDb2dVertex
 10
1762.385569042736
 20
1166.953632783235
 30
0.0
 42
-0.0305957625576657
  0
SEQEND
  5
119E
330
865
100
AcDbEntity
  8
0
  6
CONTINUOUS
  0
ARC
  5
866
330
1F
100
AcDbEntity
  8
0
  6
CONTINUOUS
100
AcDbCircle
 10
1891.390278012425
 20
1163.611976234416
 30
0.0
 40
135.308884614809
100
AcDbArc
 50
178.644949559254
 51
203.9235377323546
  0
ARC
  5
867
330
1F
100
AcDbEntity
  8
0
  6
CONTINUOUS
100
AcDbCircle
 10
1596.63008741955
 20
1163.611976234416
 30
0.0
 40
141.308884614809
100
AcDbArc
 50
335.9938542955114
 51
1.355050440745923
  0
ARC
  5
868
330
1F
100
AcDbEntity
  8
0
  6
CONTINUOUS
100
AcDbCircle
 10
1596.63008741955
 20
1163.611976234416
 30
0.0
 40
135.308884614809
100
AcDbArc
 50
336.0764622676453
 51
1.355050440745923
  0
ARC
  5
869
330
1F
100
AcDbEntity
  8
0
  6
CONTINUOUS
100
AcDbCircle
 10
1891.390278012425
 20
1163.611976234416
 30
0.0
 40
141.308884614809
100
AcDbArc
 50
178.644949559254
 51
204.0061457044885
  0
POLYLINE
  5
86A
330
1F
100
AcDbEntity
  8
0
  6
CONTINUOUS
100
AcDb2dPolyline
 66
     1
 10
0.0
 20
0.0
 30
0.0
  0
VERTEX
  5
119F
330
86A
100
AcDbEntity
  8
0
  6
CONTINUOUS
100
AcDbVertex
100
AcDb2dVertex
 10
1683.129837192766
 20
1137.466349292338
 30
0.0
  0
VERTEX
  5
11A0
330
86A
100
AcDbEntity
  8
0
  6
CONTINUOUS
100
AcDbVertex
100
AcDb2dVertex
 10
1682.82785227748
 20
1139.108703397275
 30
0.0
 42
0.5016049534703276
  0
VERTEX
  5
11A1
330
86A
100
AcDbEntity
  8
0
  6
CONTINUOUS
100
AcDbVertex
100
AcDb2dVertex
 10
1680.830718224586
 20
1148.807300992594
 30
0.0
 42
0.5731451722580876
  0
VERTEX
  5
11A2
330
86A
100
AcDbEntity
  8
0
  6
CONTINUOUS
100
AcDbVertex
100
AcDb2dVertex
 10
1663.011796027801
 20
1137.56803028402
 30
0.0
 42
0.1994211041236551
  0
VERTEX
  5
11A3
330
86A
100
AcDbEntity
  8
0
  6
CONTINUOUS
100
AcDbVertex
100
AcDb2dVertex
 10
1667.696390210502
 20
1126.052933103349
 30
0.0
 42
0.1912321573076029
  0
VERTEX
  5
11A4
330
86A
100
AcDbEntity
  8
0
  6
CONTINUOUS
100
AcDbVertex
100
AcDb2dVertex
 10
1683.037716525902
 20
1119.953635699518
 30
0.0
 42
0.143630861908326
  0
VERTEX
  5
11A5
330
86A
100
AcDbEntity
  8
0
  6
CONTINUOUS
100
AcDbVertex
100
AcDb2dVertex
 10
1701.447936685203
 20
1125.438241645472
 30
0.0
 42
0.2016233873508618
  0
VERTEX
  5
11A6
330
86A
100
AcDbEntity
  8
0
  6
CONTINUOUS
100
AcDbVertex
100
AcDb2dVertex
 10
1724.179528783585
 20
1158.068891451122
 30
0.0
 42
0.0305957625576657
  0
VERTEX
  5
11A7
330
86A
100
AcDbEntity
  8
0
  6
CONTINUOUS
100
AcDbVertex
100
AcDb2dVertex
 10
1725.634796389239
 20
1166.953632783235
 30
0.0
 42
0.0305957625576657
  0
SEQEND
  5
11A8
330
86A
100
AcDbEntity
  8
0
  6
CONTINUOUS
  0
POLYLINE
  5
86B
330
1F
100
AcDbEntity
  8
0
  6
CONTINUOUS
100
AcDb2dPolyline
 66
     1
 10
0.0
 20
0.0
 30
0.0
  0
VERTEX
  5
11A9
330
86B
100
AcDbEntity
  8
0
  6
CONTINUOUS
100
AcDbVertex
100
AcDb2dVertex
 10
1683.129837192766
 20
1137.466349292338
 30
0.0
 42
0.6244873880121875
  0
VERTEX
  5
11AA
330
86B
100
AcDbEntity
  8
0
  6
CONTINUOUS
100
AcDbVertex
100
AcDb2dVertex
 10
1683.609321642973
 20
1154.125160633017
 30
0.0
 42
0.5712699294635224
  0
VERTEX
  5
11AB
330
86B
100
AcDbEntity
  8
0
  6
CONTINUOUS
100
AcDbVertex
100
AcDb2dVertex
 10
1657.011408151364
 20
1137.494069090718
 30
0.0
 42
0.1992749000703595
  0
VERTEX
  5
11AC
330
86B
100
AcDbEntity
  8
0
  6
CONTINUOUS
100
AcDbVertex
100
AcDb2dVertex
 10
1663.505360498259
 20
1121.758359596837
 30
0.0
 42
0.1922899288213652
  0
VERTEX
  5
11AD
330
86B
100
AcDbEntity
  8
0
  6
CONTINUOUS
100
AcDbVertex
100
AcDb2dVertex
 10
1683.04913960646
 20
1113.953632783235
 30
0.0
 42
0.1435180749715141
  0
VERTEX
  5
11AE
330
86B
100
AcDbEntity
  8
0
  6
CONTINUOUS
100
AcDbVertex
100
AcDb2dVertex
 10
1704.683587712647
 20
1120.385379455384
 30
0.0
 42
0.2013051193684176
  0
VERTEX
  5
11AF
330
86B
100
AcDbEntity
  8
0
  6
CONTINUOUS
100
AcDbVertex
100
AcDb2dVertex
 10
1730.038811051662
 20
1156.776533277645
 30
0.0
 42
0.0321832401292304
  0
VERTEX
  5
11B0
330
86B
100
AcDbEntity
  8
0
  6
CONTINUOUS
100
AcDbVertex
100
AcDb2dVertex
 10
1731.663979078605
 20
1166.953632783235
 30
0.0
 42
0.0321832401292304
  0
SEQEND
  5
11B1
330
86B
100
AcDbEntity
  8
0
  6
CONTINUOUS
  0
LINE
  5
86C
330
1F
100
AcDbEntity
  8
0
100
AcDbLine
 10
1721.634796389239
 20
1170.953632783234
 30
0.0
 11
1766.385569042736
 21
1170.953632783234
 31
0.0
  0
LINE
  5
86D
330
1F
100
AcDbEntity
  8
0
100
AcDbLine
 10
1721.634796389239
 20
1180.953632783235
 30
0.0
 11
1766.385569042736
 21
1180.953632783235
 31
0.0
  0
LINE
  5
86E
330
1F
100
AcDbEntity
  8
0
100
AcDbLine
 10
1721.634796389239
 20
1176.953632783235
 30
0.0
 11
1766.385569042736
 21
1176.953632783235
 31
0.0
  0
POLYLINE
  5
86F
330
1F
100
AcDbEntity
  8
0
  6
CONTINUOUS
100
AcDb2dPolyline
 66
     1
 10
0.0
 20
0.0
 30
0.0
  0
VERTEX
  5
11B2
330
86F
100
AcDbEntity
  8
0
  6
CONTINUOUS
100
AcDbVertex
100
AcDb2dVertex
 10
1804.890528239208
 20
1210.440916274132
 30
0.0
 42
0.6244873880122032
  0
VERTEX
  5
11B3
330
86F
100
AcDbEntity
  8
0
  6
CONTINUOUS
100
AcDbVertex
100
AcDb2dVertex
 10
1804.411043789
 20
1193.782104933454
 30
0.0
 42
0.5712699294635224
  0
VERTEX
  5
11B4
330
86F
100
AcDbEntity
  8
0
  6
CONTINUOUS
100
AcDbVertex
100
AcDb2dVertex
 10
1831.00895728061
 20
1210.413196475752
 30
0.0
 42
0.1992749000703595
  0
VERTEX
  5
11B5
330
86F
100
AcDbEntity
  8
0
  6
CONTINUOUS
100
AcDbVertex
100
AcDb2dVertex
 10
1824.515004933714
 20
1226.148905969634
 30
0.0
 42
0.1922899288213652
  0
VERTEX
  5
11B6
330
86F
100
AcDbEntity
  8
0
  6
CONTINUOUS
100
AcDbVertex
100
AcDb2dVertex
 10
1804.971225825513
 20
1233.953632783235
 30
0.0
 42
0.1435180749715141
  0
VERTEX
  5
11B7
330
86F
100
AcDbEntity
  8
0
  6
CONTINUOUS
100
AcDbVertex
100
AcDb2dVertex
 10
1783.336777719326
 20
1227.521886111086
 30
0.0
 42
0.2013051193684176
  0
VERTEX
  5
11B8
330
86F
100
AcDbEntity
  8
0
  6
CONTINUOUS
100
AcDbVertex
100
AcDb2dVertex
 10
1757.981554380313
 20
1191.130732288826
 30
0.0
 42
0.0323879793785061
  0
VERTEX
  5
11B9
330
86F
100
AcDbEntity
  8
0
  6
CONTINUOUS
100
AcDbVertex
100
AcDb2dVertex
 10
1756.357065421136
 20
1180.953632783235
 30
0.0
 42
0.0323879793785061
  0
SEQEND
  5
11BA
330
86F
100
AcDbEntity
  8
0
  6
CONTINUOUS
  0
POLYLINE
  5
870
330
1F
100
AcDbEntity
  8
0
  6
CONTINUOUS
100
AcDb2dPolyline
 66
     1
 10
0.0
 20
0.0
 30
0.0
  0
VERTEX
  5
11BB
330
870
100
AcDbEntity
  8
0
  6
CONTINUOUS
100
AcDbVertex
100
AcDb2dVertex
 10
1804.890528239208
 20
1210.440916274132
 30
0.0
  0
VERTEX
  5
11BC
330
870
100
AcDbEntity
  8
0
  6
CONTINUOUS
100
AcDbVertex
100
AcDb2dVertex
 10
1805.192513154493
 20
1208.798562169196
 30
0.0
 42
0.5016049534703276
  0
VERTEX
  5
11BD
330
870
100
AcDbEntity
  8
0
  6
CONTINUOUS
100
AcDbVertex
100
AcDb2dVertex
 10
1807.189647207388
 20
1199.099964573876
 30
0.0
 42
0.5731451722580876
  0
VERTEX
  5
11BE
330
870
100
AcDbEntity
  8
0
  6
CONTINUOUS
100
AcDbVertex
100
AcDb2dVertex
 10
1825.008569404174
 20
1210.33923528245
 30
0.0
 42
0.1994211041236551
  0
VERTEX
  5
11BF
330
870
100
AcDbEntity
  8
0
  6
CONTINUOUS
100
AcDbVertex
100
AcDb2dVertex
 10
1820.323975221471
 20
1221.854332463121
 30
0.0
 42
0.1912321573076029
  0
VERTEX
  5
11C0
330
870
100
AcDbEntity
  8
0
  6
CONTINUOUS
100
AcDbVertex
100
AcDb2dVertex
 10
1804.982648906073
 20
1227.953629866952
 30
0.0
 42
0.143630861908326
  0
VERTEX
  5
11C1
330
870
100
AcDbEntity
  8
0
  6
CONTINUOUS
100
AcDbVertex
100
AcDb2dVertex
 10
1786.572428746771
 20
1222.469023920999
 30
0.0
 42
0.2016233873508618
  0
VERTEX
  5
11C2
330
870
100
AcDbEntity
  8
0
  6
CONTINUOUS
100
AcDbVertex
100
AcDb2dVertex
 10
1763.840836648389
 20
1189.838374115349
 30
0.0
 42
0.0305957625576679
  0
VERTEX
  5
11C3
330
870
100
AcDbEntity
  8
0
  6
CONTINUOUS
100
AcDbVertex
100
AcDb2dVertex
 10
1762.385569042736
 20
1180.953632783235
 30
0.0
 42
0.0305957625576679
  0
SEQEND
  5
11C4
330
870
100
AcDbEntity
  8
0
  6
CONTINUOUS
  0
ARC
  5
871
330
1F
100
AcDbEntity
  8
0
  6
CONTINUOUS
100
AcDbCircle
 10
1891.390278012425
 20
1184.295289332054
 30
0.0
 40
135.308884614809
100
AcDbArc
 50
156.0764622676453
 51
181.3550504407459
  0
ARC
  5
872
330
1F
100
AcDbEntity
  8
0
100
AcDbCircle
 10
1721.634796389239
 20
1173.953632783235
 30
0.0
 40
3.000000000000056
100
AcDbArc
 50
90.0
 51
270.0
  0
LINE
  5
873
330
1F
100
AcDbEntity
  8
0
100
AcDbLine
 10
1721.634796389239
 20
1176.953632783235
 30
0.0
 11
1721.634796389239
 21
1180.953632783235
 31
0.0
  0
POLYLINE
  5
874
330
1F
100
AcDbEntity
  8
0
  6
CONTINUOUS
100
AcDb2dPolyline
 66
     1
 10
0.0
 20
0.0
 30
0.0
  0
VERTEX
  5
11C5
330
874
100
AcDbEntity
  8
0
  6
CONTINUOUS
100
AcDbVertex
100
AcDb2dVertex
 10
1683.129837192766
 20
1210.440916274132
 30
0.0
  0
VERTEX
  5
11C6
330
874
100
AcDbEntity
  8
0
  6
CONTINUOUS
100
AcDbVertex
100
AcDb2dVertex
 10
1682.82785227748
 20
1208.798562169196
 30
0.0
 42
-0.5016049534703276
  0
VERTEX
  5
11C7
330
874
100
AcDbEntity
  8
0
  6
CONTINUOUS
100
AcDbVertex
100
AcDb2dVertex
 10
1680.830718224586
 20
1199.099964573876
 30
0.0
 42
-0.5731451722580876
  0
VERTEX
  5
11C8
330
874
100
AcDbEntity
  8
0
  6
CONTINUOUS
100
AcDbVertex
100
AcDb2dVertex
 10
1663.011796027801
 20
1210.33923528245
 30
0.0
 42
-0.1994211041236551
  0
VERTEX
  5
11C9
330
874
100
AcDbEntity
  8
0
  6
CONTINUOUS
100
AcDbVertex
100
AcDb2dVertex
 10
1667.696390210502
 20
1221.854332463121
 30
0.0
 42
-0.1912321573076029
  0
VERTEX
  5
11CA
330
874
100
AcDbEntity
  8
0
  6
CONTINUOUS
100
AcDbVertex
100
AcDb2dVertex
 10
1683.037716525902
 20
1227.953629866952
 30
0.0
 42
-0.143630861908326
  0
VERTEX
  5
11CB
330
874
100
AcDbEntity
  8
0
  6
CONTINUOUS
100
AcDbVertex
100
AcDb2dVertex
 10
1701.447936685203
 20
1222.469023920999
 30
0.0
 42
-0.2016233873508618
  0
VERTEX
  5
11CC
330
874
100
AcDbEntity
  8
0
  6
CONTINUOUS
100
AcDbVertex
100
AcDb2dVertex
 10
1724.179528783585
 20
1189.838374115349
 30
0.0
 42
-0.0305957625576678
  0
VERTEX
  5
11CD
330
874
100
AcDbEntity
  8
0
  6
CONTINUOUS
100
AcDbVertex
100
AcDb2dVertex
 10
1725.634796389239
 20
1180.953632783235
 30
0.0
 42
-0.0305957625576678
  0
SEQEND
  5
11CE
330
874
100
AcDbEntity
  8
0
  6
CONTINUOUS
  0
POLYLINE
  5
875
330
1F
100
AcDbEntity
  8
0
  6
CONTINUOUS
100
AcDb2dPolyline
 66
     1
 10
0.0
 20
0.0
 30
0.0
  0
VERTEX
  5
11CF
330
875
100
AcDbEntity
  8
0
  6
CONTINUOUS
100
AcDbVertex
100
AcDb2dVertex
 10
1683.129837192766
 20
1210.440916274132
 30
0.0
 42
-0.6244873880122032
  0
VERTEX
  5
11D0
330
875
100
AcDbEntity
  8
0
  6
CONTINUOUS
100
AcDbVertex
100
AcDb2dVertex
 10
1683.609321642973
 20
1193.782104933454
 30
0.0
 42
-0.5712699294635224
  0
VERTEX
  5
11D1
330
875
100
AcDbEntity
  8
0
  6
CONTINUOUS
100
AcDbVertex
100
AcDb2dVertex
 10
1657.011408151364
 20
1210.413196475752
 30
0.0
 42
-0.1992749000703595
  0
VERTEX
  5
11D2
330
875
100
AcDbEntity
  8
0
  6
CONTINUOUS
100
AcDbVertex
100
AcDb2dVertex
 10
1663.505360498259
 20
1226.148905969634
 30
0.0
 42
-0.1922899288213652
  0
VERTEX
  5
11D3
330
875
100
AcDbEntity
  8
0
  6
CONTINUOUS
100
AcDbVertex
100
AcDb2dVertex
 10
1683.04913960646
 20
1233.953632783235
 30
0.0
 42
-0.1435180749715141
  0
VERTEX
  5
11D4
330
875
100
AcDbEntity
  8
0
  6
CONTINUOUS
100
AcDbVertex
100
AcDb2dVertex
 10
1704.683587712647
 20
1227.521886111086
 30
0.0
 42
-0.2013051193684176
  0
VERTEX
  5
11D5
330
875
100
AcDbEntity
  8
0
  6
CONTINUOUS
100
AcDbVertex
100
AcDb2dVertex
 10
1730.038811051662
 20
1191.130732288826
 30
0.0
 42
-0.0323879793785061
  0
VERTEX
  5
11D6
330
875
100
AcDbEntity
  8
0
  6
CONTINUOUS
100
AcDbVertex
100
AcDb2dVertex
 10
1731.663300010836
 20
1180.953632783235
 30
0.0
 42
-0.0323879793785061
  0
SEQEND
  5
11D7
330
875
100
AcDbEntity
  8
0
  6
CONTINUOUS
  0
ARC
  5
876
330
1F
100
AcDbEntity
  8
0
  6
CONTINUOUS
100
AcDbCircle
 10
1596.63008741955
 20
1184.295289332054
 30
0.0
 40
135.308884614809
100
AcDbArc
 50
358.644949559254
 51
23.92353773235466
  0
ARC
  5
877
330
1F
100
AcDbEntity
  8
0
  6
CONTINUOUS
100
AcDbCircle
 10
1596.63008741955
 20
1184.295289332054
 30
0.0
 40
141.308884614809
100
AcDbArc
 50
358.644949559254
 51
24.0061457044885
  0
ARC
  5
878
330
1F
100
AcDbEntity
  8
0
  6
CONTINUOUS
100
AcDbCircle
 10
1891.390278012425
 20
1184.295289332054
 30
0.0
 40
141.308884614809
100
AcDbArc
 50
155.9938542955114
 51
181.3550504407459
  0
ARC
  5
879
330
1F
100
AcDbEntity
  8
0
100
AcDbCircle
 10
1766.385569042736
 20
1173.953632783235
 30
0.0
 40
3.000000000000056
100
AcDbArc
 50
270.0
 51
90.0
  0
LINE
  5
87A
330
1F
100
AcDbEntity
  8
0
100
AcDbLine
 10
1766.385569042736
 20
1176.953632783235
 30
0.0
 11
1766.385569042736
 21
1180.953632783235
 31
0.0
  0
ARC
  5
87B
330
1F
100
AcDbEntity
  8
0
100
AcDbCircle
 10
1363.175892523685
 20
1480.434522644119
 30
0.0
 40
30.75581818224811
100
AcDbArc
 50
157.5050578834445
 51
202.4949421165554
  0
ARC
  5
87C
330
1F
100
AcDbEntity
  8
0
100
AcDbCircle
 10
1398.175892523685
 20
1480.434522644119
 30
0.0
 40
30.75581818224811
100
AcDbArc
 50
157.5050578834445
 51
202.4949421165554
  0
ARC
  5
87D
330
1F
100
AcDbEntity
  8
0
  6
CONTINUOUS
100
AcDbCircle
 10
977.7855454526259
 20
1379.136705024282
 30
0.0
 40
44.35657218847958
100
AcDbArc
 50
331.8719099881548
 51
90.25584162028195
  0
ARC
  5
87E
330
1F
100
AcDbEntity
  8
0
  6
CONTINUOUS
100
AcDbCircle
 10
977.7855454526259
 20
1379.136705024282
 30
0.0
 40
38.35657218847958
100
AcDbArc
 50
331.8450300399697
 51
90.31229057794458
  0
ARC
  5
87F
330
1F
100
AcDbEntity
  8
0
  6
CONTINUOUS
100
AcDbCircle
 10
965.4588816342446
 20
1371.464572318315
 30
0.0
 40
14.79145401338622
100
AcDbArc
 50
312.3009873069365
 51
39.0499266214951
  0
ARC
  5
880
330
1F
100
AcDbEntity
  8
0
  6
CONTINUOUS
100
AcDbCircle
 10
966.5527254747146
 20
1370.293723513449
 30
0.0
 40
19.6644356743196
100
AcDbArc
 50
311.716819306387
 51
48.26222023342971
  0
LINE
  5
881
330
1F
100
AcDbEntity
  8
0
100
AcDbLine
 10
1368.123954047344
 20
1409.464622207377
 30
0.0
 11
1351.128750698161
 21
1408.049351261571
 31
0.0
  0
LINE
  5
882
330
1F
100
AcDbEntity
  8
0
100
AcDbLine
 10
1333.123954047344
 20
1409.464622207377
 30
0.0
 11
1316.128750698161
 21
1408.049351261571
 31
0.0
  0
ARC
  5
883
330
1F
100
AcDbEntity
  8
0
100
AcDbCircle
 10
1202.782423222994
 20
1437.577581808126
 30
0.0
 40
106.6116003211486
100
AcDbArc
 50
343.0452386242168
 51
16.9547613757832
  0
ARC
  5
884
330
1F
100
AcDbEntity
  8
0
100
AcDbCircle
 10
1237.782423222994
 20
1437.577581808126
 30
0.0
 40
106.6116003211486
100
AcDbArc
 50
343.0452386242168
 51
16.9547613757832
  0
ARC
  5
885
330
1F
100
AcDbEntity
  8
0
100
AcDbCircle
 10
1286.888889561815
 20
1355.559957023382
 30
0.0
 40
57.11966942967778
100
AcDbArc
 50
337.7625217859816
 51
22.23747821401841
  0
ARC
  5
886
330
1F
100
AcDbEntity
  8
0
100
AcDbCircle
 10
1300.834946868487
 20
1391.832280600968
 30
0.0
 40
41.59279291423044
100
AcDbArc
 50
339.3683311470979
 51
20.63166885290214
  0
ARC
  5
887
330
1F
100
AcDbEntity
  8
0
100
AcDbCircle
 10
1357.997260461991
 20
1391.832280600968
 30
0.0
 40
27.47268131795497
100
AcDbArc
 50
147.7604243756004
 51
212.2395756243995
  0
LINE
  5
888
330
1F
100
AcDbEntity
  8
0
100
AcDbLine
 10
1344.755882356731
 20
1388.48377005204
 30
0.0
 11
1362.48695800496
 21
1388.48377005204
 31
0.0
  0
LINE
  5
889
330
1F
100
AcDbEntity
  8
0
100
AcDbLine
 10
1344.525690195133
 20
1360.35827281385
 30
0.0
 11
1363.881330353816
 21
1361.773543759657
 31
0.0
  0
ARC
  5
88A
330
1F
100
AcDbEntity
  8
0
100
AcDbCircle
 10
1251.888889561815
 20
1355.559957023382
 30
0.0
 40
57.11966942967778
100
AcDbArc
 50
337.7625217859816
 51
22.23747821401841
  0
ARC
  5
88B
330
1F
100
AcDbEntity
  8
0
100
AcDbCircle
 10
1265.834946868487
 20
1391.832280600968
 30
0.0
 40
41.59279291423044
100
AcDbArc
 50
339.3683311470979
 51
20.63166885290214
  0
LINE
  5
88C
330
1F
100
AcDbEntity
  8
0
100
AcDbLine
 10
1309.755882356731
 20
1388.48377005204
 30
0.0
 11
1327.48695800496
 21
1388.48377005204
 31
0.0
  0
LINE
  5
88D
330
1F
100
AcDbEntity
  8
0
100
AcDbLine
 10
1309.525690195133
 20
1360.35827281385
 30
0.0
 11
1328.881330353816
 21
1361.773543759657
 31
0.0
  0
ARC
  5
88E
330
1F
100
AcDbEntity
  8
0
100
AcDbCircle
 10
1392.997260461991
 20
1391.832280600968
 30
0.0
 40
27.47268131795497
100
AcDbArc
 50
147.7604243756004
 51
212.2395756243995
  0
LINE
  5
88F
330
1F
100
AcDbEntity
  8
0
100
AcDbLine
 10
1366.629036655013
 20
1437.083017503679
 30
0.0
 11
1346.144150462809
 21
1440.695459340446
 31
0.0
  0
LINE
  5
890
330
1F
100
AcDbEntity
  8
0
100
AcDbLine
 10
1346.144150462809
 20
1435.878877854537
 30
0.0
 11
1368.436534046192
 21
1435.276808029967
 31
0.0
  0
LINE
  5
891
330
1F
100
AcDbEntity
  8
0
100
AcDbLine
 10
1344.370304167969
 20
1482.008834465041
 30
0.0
 11
1365.810951481093
 21
1482.008834465041
 31
0.0
  0
LINE
  5
892
330
1F
100
AcDbEntity
  8
0
100
AcDbLine
 10
1349.240401250562
 20
1410.408132356359
 30
0.0
 11
1367.179779323546
 21
1410.879893153184
 31
0.0
  0
LINE
  5
893
330
1F
100
AcDbEntity
  8
0
100
AcDbLine
 10
1365.031299708364
 20
1479.281935516976
 30
0.0
 11
1342.031329409514
 21
1480.061054406997
 31
0.0
  0
LINE
  5
894
330
1F
100
AcDbEntity
  8
0
100
AcDbLine
 10
1331.629036655013
 20
1437.083017503679
 30
0.0
 11
1311.144150462809
 21
1440.695459340446
 31
0.0
  0
LINE
  5
895
330
1F
100
AcDbEntity
  8
0
100
AcDbLine
 10
1311.144150462809
 20
1435.878877854537
 30
0.0
 11
1333.436534046192
 21
1435.276808029967
 31
0.0
  0
LINE
  5
896
330
1F
100
AcDbEntity
  8
0
100
AcDbLine
 10
1309.37030416797
 20
1482.008834465041
 30
0.0
 11
1330.810951481093
 21
1482.008834465041
 31
0.0
  0
LINE
  5
897
330
1F
100
AcDbEntity
  8
0
100
AcDbLine
 10
1330.031299708364
 20
1479.281935516976
 30
0.0
 11
1307.031329409514
 21
1480.061054406997
 31
0.0
  0
LINE
  5
898
330
1F
100
AcDbEntity
  8
0
100
AcDbLine
 10
1314.240401250562
 20
1410.408132356359
 30
0.0
 11
1332.179779323546
 21
1410.879893153184
 31
0.0
  0
ARC
  5
899
330
1F
100
AcDbEntity
  8
0
100
AcDbCircle
 10
1417.474445077264
 20
1569.835551244969
 30
0.0
 40
51.17711403260225
100
AcDbArc
 50
158.8019222469722
 51
201.1980777530278
  0
ARC
  5
89A
330
1F
100
AcDbEntity
  8
0
100
AcDbCircle
 10
1267.856590518001
 20
1569.835551244969
 30
0.0
 40
74.24670187285427
100
AcDbArc
 50
345.5674138149892
 51
14.43258618501076
  0
ARC
  5
89B
330
1F
100
AcDbEntity
  8
0
100
AcDbCircle
 10
1382.474445077264
 20
1569.835551244969
 30
0.0
 40
51.17711403260225
100
AcDbArc
 50
158.8019222469722
 51
201.1980777530278
  0
ARC
  5
89C
330
1F
100
AcDbEntity
  8
0
100
AcDbCircle
 10
1232.856590518001
 20
1569.835551244969
 30
0.0
 40
74.24670187285427
100
AcDbArc
 50
345.5674138149892
 51
14.43258618501076
  0
LINE
  5
89D
330
1F
100
AcDbEntity
  8
0
100
AcDbLine
 10
1343.698098732301
 20
1541.49871670603
 30
0.0
 11
1365.919117107911
 21
1544.459441734005
 31
0.0
  0
LINE
  5
89E
330
1F
100
AcDbEntity
  8
0
100
AcDbLine
 10
1367.634720372928
 20
1515.960150085559
 30
0.0
 11
1346.032796632757
 21
1514.782699409956
 31
0.0
  0
LINE
  5
89F
330
1F
100
AcDbEntity
  8
0
100
AcDbLine
 10
1345.247273900412
 20
1510.072862373527
 30
0.0
 11
1367.634720372928
 21
1515.960150085559
 31
0.0
  0
LINE
  5
8A0
330
1F
100
AcDbEntity
  8
0
100
AcDbLine
 10
1308.698098732301
 20
1541.49871670603
 30
0.0
 11
1330.919117107911
 21
1544.459441734005
 31
0.0
  0
ARC
  5
8A1
330
1F
100
AcDbEntity
  8
0
100
AcDbCircle
 10
1284.515741601308
 20
1513.6178035388
 30
0.0
 40
59.25027723911768
100
AcDbArc
 50
338.8106919803585
 51
21.18930801964145
  0
ARC
  5
8A2
330
1F
100
AcDbEntity
  8
0
100
AcDbCircle
 10
1249.515741601308
 20
1513.6178035388
 30
0.0
 40
59.25027723911768
100
AcDbArc
 50
338.8106919803585
 51
21.18930801964145
  0
LINE
  5
8A3
330
1F
100
AcDbEntity
  8
0
100
AcDbLine
 10
1332.634720372928
 20
1515.960150085559
 30
0.0
 11
1311.032796632757
 21
1514.782699409956
 31
0.0
  0
LINE
  5
8A4
330
1F
100
AcDbEntity
  8
0
100
AcDbLine
 10
1310.247273900412
 20
1510.072862373527
 30
0.0
 11
1332.634720372928
 21
1515.960150085559
 31
0.0
  0
LINE
  5
8A5
330
1F
100
AcDbEntity
  8
0
100
AcDbLine
 10
1364.4377106988
 20
1541.49871670603
 30
0.0
 11
1343.20429659593
 21
1540.018359914379
 31
0.0
  0
LINE
  5
8A6
330
1F
100
AcDbEntity
  8
0
100
AcDbLine
 10
1329.4377106988
 20
1541.49871670603
 30
0.0
 11
1308.20429659593
 21
1540.018359914379
 31
0.0
  0
ARC
  5
8A7
330
1F
100
AcDbEntity
  8
0
100
AcDbCircle
 10
1287.783744634639
 20
1543.182050466024
 30
0.0
 40
18.83062952425546
100
AcDbArc
 50
334.3603398614806
 51
25.63966013851934
  0
ARC
  5
8A8
330
1F
100
AcDbEntity
  8
0
100
AcDbCircle
 10
1322.783744634639
 20
1543.182050466024
 30
0.0
 40
18.83062952425546
100
AcDbArc
 50
334.3603398614806
 51
25.63966013851934
  0
ARC
  5
8A9
330
1F
100
AcDbEntity
  8
0
100
AcDbCircle
 10
1346.999088149582
 20
1543.182050466024
 30
0.0
 40
14.70319572620801
100
AcDbArc
 50
146.3458272488429
 51
213.654172751157
  0
ARC
  5
8AA
330
1F
100
AcDbEntity
  8
0
100
AcDbCircle
 10
1381.999088149582
 20
1543.182050466024
 30
0.0
 40
14.70319572620801
100
AcDbArc
 50
146.3458272488429
 51
213.654172751157
  0
LINE
  5
8AB
330
1F
100
AcDbEntity
  8
0
100
AcDbLine
 10
1343.698098732301
 20
1632.171658672515
 30
0.0
 11
1365.919117107911
 21
1635.132383700489
 31
0.0
  0
LINE
  5
8AC
330
1F
100
AcDbEntity
  8
0
100
AcDbLine
 10
1344.682203757588
 20
1571.653434283437
 30
0.0
 11
1363.446626618869
 21
1568.692720700134
 31
0.0
  0
LINE
  5
8AD
330
1F
100
AcDbEntity
  8
0
100
AcDbLine
 10
1363.940409314976
 20
1567.705812357475
 30
0.0
 11
1343.694599484847
 21
1568.692720700134
 31
0.0
  0
LINE
  5
8AE
330
1F
100
AcDbEntity
  8
0
100
AcDbLine
 10
1345.397663779826
 20
1618.748874811872
 30
0.0
 11
1360.918167610849
 21
1616.224065870123
 31
0.0
  0
LINE
  5
8AF
330
1F
100
AcDbEntity
  8
0
100
AcDbLine
 10
1360.918167610849
 20
1618.748874811872
 30
0.0
 11
1345.397663779826
 21
1618.748874811872
 31
0.0
  0
LINE
  5
8B0
330
1F
100
AcDbEntity
  8
0
100
AcDbLine
 10
1309.682203757588
 20
1571.653434283437
 30
0.0
 11
1328.446626618869
 21
1568.692720700134
 31
0.0
  0
LINE
  5
8B1
330
1F
100
AcDbEntity
  8
0
100
AcDbLine
 10
1328.940409314975
 20
1567.705812357475
 30
0.0
 11
1308.694599484847
 21
1568.692720700134
 31
0.0
  0
LINE
  5
8B2
330
1F
100
AcDbEntity
  8
0
100
AcDbLine
 10
1310.397663779826
 20
1618.748874811872
 30
0.0
 11
1325.91816761085
 21
1616.224065870123
 31
0.0
  0
LINE
  5
8B3
330
1F
100
AcDbEntity
  8
0
100
AcDbLine
 10
1325.91816761085
 20
1618.748874811872
 30
0.0
 11
1310.397663779826
 21
1618.748874811872
 31
0.0
  0
LINE
  5
8B4
330
1F
100
AcDbEntity
  8
0
100
AcDbLine
 10
1308.698098732301
 20
1632.171658672515
 30
0.0
 11
1330.919117107911
 21
1635.132383700489
 31
0.0
  0
ARC
  5
8B5
330
1F
100
AcDbEntity
  8
0
100
AcDbCircle
 10
1727.328130390346
 20
1486.692757191168
 30
0.0
 40
3.000000000000056
100
AcDbArc
 50
90.0
 51
270.0
  0
ARC
  5
8B6
330
1F
100
AcDbEntity
  8
0
100
AcDbCircle
 10
1760.692235041628
 20
1486.692757191168
 30
0.0
 40
3.000000000000056
100
AcDbArc
 50
270.0
 51
90.0
  0
ARC
  5
8B7
330
1F
100
AcDbEntity
  8
0
  6
CONTINUOUS
100
AcDbCircle
 10
1777.428250619358
 20
1376.807937646458
 30
0.0
 40
26.38058376875362
100
AcDbArc
 50
209.5252795628998
 51
306.5497067148896
  0
ARC
  5
8B8
330
1F
100
AcDbEntity
  8
0
  6
CONTINUOUS
100
AcDbCircle
 10
1776.981066709581
 20
1376.201832200153
 30
0.0
 40
19.7020449873939
100
AcDbArc
 50
209.6009041723514
 51
307.2767026925461
  0
ARC
  5
8B9
330
1F
100
AcDbEntity
  8
0
  6
CONTINUOUS
100
AcDbCircle
 10
1789.926542449181
 20
1383.635980180953
 30
0.0
 40
33.8737589960223
100
AcDbArc
 50
88.33157645657074
 51
155.5533823134107
  0
POLYLINE
  5
8BA
330
1F
100
AcDbEntity
  8
0
  6
CONTINUOUS
100
AcDb2dPolyline
 66
     1
 10
0.0
 20
0.0
 30
0.0
  0
VERTEX
  5
11D8
330
8BA
100
AcDbEntity
  8
0
  6
CONTINUOUS
100
AcDbVertex
100
AcDb2dVertex
 10
1810.545139858523
 20
1446.266279796175
 30
0.0
 42
-0.6244873880121949
  0
VERTEX
  5
11D9
330
8BA
100
AcDbEntity
  8
0
  6
CONTINUOUS
100
AcDbVertex
100
AcDb2dVertex
 10
1805.39791241992
 20
1462.117208801051
 30
0.0
 42
-0.5712699294635224
  0
VERTEX
  5
11DA
330
8BA
100
AcDbEntity
  8
0
  6
CONTINUOUS
100
AcDbVertex
100
AcDb2dVertex
 10
1835.600649570481
 20
1453.641545015269
 30
0.0
 42
-0.1992749000703595
  0
VERTEX
  5
11DB
330
8BA
100
AcDbEntity
  8
0
  6
CONTINUOUS
100
AcDbVertex
100
AcDb2dVertex
 10
1833.796426484958
 20
1436.714384904451
 30
0.0
 42
-0.1922899288213652
  0
VERTEX
  5
11DC
330
8BA
100
AcDbEntity
  8
0
  6
CONTINUOUS
100
AcDbVertex
100
AcDb2dVertex
 10
1817.238101008052
 20
1423.726124056058
 30
0.0
 42
-0.1435180749715141
  0
VERTEX
  5
11DD
330
8BA
100
AcDbEntity
  8
0
  6
CONTINUOUS
100
AcDbVertex
100
AcDb2dVertex
 10
1794.66799892439
 20
1423.810988931839
 30
0.0
 42
-0.2013051193684176
  0
VERTEX
  5
11DE
330
8BA
100
AcDbEntity
  8
0
  6
CONTINUOUS
100
AcDbVertex
100
AcDb2dVertex
 10
1760.098071263492
 20
1451.598099767745
 30
0.0
 42
-0.0525451820212675
  0
VERTEX
  5
11DF
330
8BA
100
AcDbEntity
  8
0
  6
CONTINUOUS
100
AcDbVertex
100
AcDb2dVertex
 10
1753.51174207254
 20
1467.050596464386
 30
0.0
  0
SEQEND
  5
11E0
330
8BA
100
AcDbEntity
  8
0
  6
CONTINUOUS
  0
POLYLINE
  5
8BB
330
1F
100
AcDbEntity
  8
0
  6
CONTINUOUS
100
AcDb2dPolyline
 66
     1
 10
0.0
 20
0.0
 30
0.0
  0
VERTEX
  5
11E1
330
8BB
100
AcDbEntity
  8
0
  6
CONTINUOUS
100
AcDbVertex
100
AcDb2dVertex
 10
1810.545139858523
 20
1446.266279796175
 30
0.0
  0
VERTEX
  5
11E2
330
8BB
100
AcDbEntity
  8
0
  6
CONTINUOUS
100
AcDbVertex
100
AcDb2dVertex
 10
1810.37283358097
 20
1447.927253137858
 30
0.0
 42
-0.5016049534703276
  0
VERTEX
  5
11E3
330
8BB
100
AcDbEntity
  8
0
  6
CONTINUOUS
100
AcDbVertex
100
AcDb2dVertex
 10
1809.560496852799
 20
1457.795963731508
 30
0.0
 42
-0.5731451722580876
  0
VERTEX
  5
11E4
330
8BB
100
AcDbEntity
  8
0
  6
CONTINUOUS
100
AcDbVertex
100
AcDb2dVertex
 10
1829.821852886255
 20
1452.024252893175
 30
0.0
 42
-0.1994211041236551
  0
VERTEX
  5
11E5
330
8BB
100
AcDbEntity
  8
0
  6
CONTINUOUS
100
AcDbVertex
100
AcDb2dVertex
 10
1828.566385457529
 20
1439.656282676835
 30
0.0
 42
-0.1912321573076029
  0
VERTEX
  5
11E6
330
8BB
100
AcDbEntity
  8
0
  6
CONTINUOUS
100
AcDbVertex
100
AcDb2dVertex
 10
1815.560905470853
 20
1429.48695564639
 30
0.0
 42
-0.143630861908326
  0
VERTEX
  5
11E7
330
8BB
100
AcDbEntity
  8
0
  6
CONTINUOUS
100
AcDbVertex
100
AcDb2dVertex
 10
1796.351267414457
 20
1429.570108749464
 30
0.0
 42
-0.2016233873508618
  0
VERTEX
  5
11E8
330
8BB
100
AcDbEntity
  8
0
  6
CONTINUOUS
100
AcDbVertex
100
AcDb2dVertex
 10
1765.357035875876
 20
1454.48681393693
 30
0.0
 42
-0.0544492341104313
  0
VERTEX
  5
11E9
330
8BB
100
AcDbEntity
  8
0
  6
CONTINUOUS
100
AcDbVertex
100
AcDb2dVertex
 10
1759.131108743208
 20
1469.214806796389
 30
0.0
 42
-0.056122523359716
  0
SEQEND
  5
11EA
330
8BB
100
AcDbEntity
  8
0
  6
CONTINUOUS
  0
ARC
  5
8BC
330
1F
100
AcDbEntity
  8
0
  6
CONTINUOUS
100
AcDbCircle
 10
1789.926542449181
 20
1383.635980180953
 30
0.0
 40
39.8737589960223
100
AcDbArc
 50
88.33157645657074
 51
155.5533823134107
  0
ARC
  5
8BD
330
1F
100
AcDbEntity
  8
0
  6
CONTINUOUS
100
AcDbCircle
 10
1696.734819979331
 20
1379.136705024282
 30
0.0
 40
38.35657218847958
100
AcDbArc
 50
89.68770942205541
 51
208.1549699600303
  0
ARC
  5
8BE
330
1F
100
AcDbEntity
  8
0
  6
CONTINUOUS
100
AcDbCircle
 10
1698.093822982794
 20
1383.635980180953
 30
0.0
 40
33.8737589960223
100
AcDbArc
 50
24.44661768658927
 51
91.66842354342925
  0
ARC
  5
8BF
330
1F
100
AcDbEntity
  8
0
  6
CONTINUOUS
100
AcDbCircle
 10
1696.734819979331
 20
1379.136705024282
 30
0.0
 40
44.35657218847958
100
AcDbArc
 50
89.74415837971804
 51
208.1280900118451
  0
ARC
  5
8C0
330
1F
100
AcDbEntity
  8
0
  6
CONTINUOUS
100
AcDbCircle
 10
1698.093822982794
 20
1383.635980180953
 30
0.0
 40
39.8737589960223
100
AcDbArc
 50
24.44661768658927
 51
91.66842354342925
  0
LINE
  5
8C1
330
1F
100
AcDbEntity
  8
0
  6
CONTINUOUS
100
AcDbLine
 10
1738.010182715987
 20
1479.692757191167
 30
0.0
 11
1738.010182715987
 21
1389.948558848871
 31
0.0
  0
LINE
  5
8C2
330
1F
100
AcDbEntity
  8
0
  6
CONTINUOUS
100
AcDbLine
 10
1750.010182715987
 20
1479.692757191167
 30
0.0
 11
1750.010182715987
 21
1389.948558848871
 31
0.0
  0
ARC
  5
8C3
330
1F
100
AcDbEntity
  8
0
  6
CONTINUOUS
100
AcDbCircle
 10
1707.967639957242
 20
1370.293723513449
 30
0.0
 40
19.6644356743196
100
AcDbArc
 50
131.7377797665703
 51
228.2831806936129
  0
ARC
  5
8C4
330
1F
100
AcDbEntity
  8
0
  6
CONTINUOUS
100
AcDbCircle
 10
1709.061483797712
 20
1371.464572318315
 30
0.0
 40
14.79145401338622
100
AcDbArc
 50
140.9500733785048
 51
227.6990126930634
  0
LINE
  5
8C5
330
1F
100
AcDbEntity
  8
0
100
AcDbLine
 10
1727.328130390346
 20
1379.94855884887
 30
0.0
 11
1760.692235041628
 21
1379.94855884887
 31
0.0
  0
LINE
  5
8C6
330
1F
100
AcDbEntity
  8
0
100
AcDbLine
 10
1727.328130390346
 20
1385.948558848871
 30
0.0
 11
1760.692235041628
 21
1385.948558848871
 31
0.0
  0
LINE
  5
8C7
330
1F
100
AcDbEntity
  8
0
100
AcDbLine
 10
1727.328130390346
 20
1389.948558848871
 30
0.0
 11
1760.692235041628
 21
1389.948558848871
 31
0.0
  0
LINE
  5
8C8
330
1F
100
AcDbEntity
  8
0
100
AcDbLine
 10
1760.692235041628
 20
1375.948558848871
 30
0.0
 11
1727.328130390346
 21
1375.948558848871
 31
0.0
  0
LINE
  5
8C9
330
1F
100
AcDbEntity
  8
0
100
AcDbLine
 10
1727.328130390346
 20
1375.948558848871
 30
0.0
 11
1727.328130390346
 21
1379.948558848871
 31
0.0
  0
ARC
  5
8CA
330
1F
100
AcDbEntity
  8
0
  6
CONTINUOUS
100
AcDbCircle
 10
1695.031815832257
 20
1382.879105766204
 30
0.0
 40
36.97836688373008
100
AcDbArc
 50
333.6565070697603
 51
349.1976466665339
  0
ARC
  5
8CB
330
1F
100
AcDbEntity
  8
0
  6
CONTINUOUS
100
AcDbCircle
 10
1695.031815832257
 20
1382.879105766204
 30
0.0
 40
42.97836688373009
100
AcDbArc
 50
333.6565070697603
 51
350.7201565413737
  0
ARC
  5
8CC
330
1F
100
AcDbEntity
  8
0
  6
CONTINUOUS
100
AcDbCircle
 10
1695.031815832257
 20
1382.879105766204
 30
0.0
 40
42.97836688373009
100
AcDbArc
 50
9.467529775253089
 51
23.67580681720637
  0
ARC
  5
8CD
330
1F
100
AcDbEntity
  8
0
100
AcDbCircle
 10
1727.328130390346
 20
1382.948558848871
 30
0.0
 40
3.000000000000056
100
AcDbArc
 50
90.0
 51
270.0
  0
LINE
  5
8CE
330
1F
100
AcDbEntity
  8
0
  6
CONTINUOUS
100
AcDbLine
 10
1712.290244214139
 20
1383.14159591364
 30
0.0
 11
1713.598273745041
 21
1384.86441808994
 31
0.0
  0
ARC
  5
8CF
330
1F
100
AcDbEntity
  8
0
  6
CONTINUOUS
100
AcDbCircle
 10
1695.031815832257
 20
1382.879105766204
 30
0.0
 40
36.97836688373008
100
AcDbArc
 50
11.02154342337706
 51
23.67580681720637
  0
LINE
  5
8D0
330
1F
100
AcDbEntity
  8
0
100
AcDbLine
 10
1727.328130390346
 20
1385.948558848871
 30
0.0
 11
1727.328130390346
 21
1389.948558848871
 31
0.0
  0
LINE
  5
8D1
330
1F
100
AcDbEntity
  8
0
100
AcDbLine
 10
1760.692235041628
 20
1375.948558848871
 30
0.0
 11
1760.692235041628
 21
1379.948558848871
 31
0.0
  0
ARC
  5
8D2
330
1F
100
AcDbEntity
  8
0
  6
CONTINUOUS
100
AcDbCircle
 10
1792.988549599717
 20
1382.879105766204
 30
0.0
 40
42.97836688373009
100
AcDbArc
 50
189.2798434586262
 51
206.3434929302396
  0
ARC
  5
8D3
330
1F
100
AcDbEntity
  8
0
  6
CONTINUOUS
100
AcDbCircle
 10
1792.988549599717
 20
1382.879105766204
 30
0.0
 40
36.97836688373008
100
AcDbArc
 50
190.8023533334661
 51
206.3434929302396
  0
ARC
  5
8D4
330
1F
100
AcDbEntity
  8
0
  6
CONTINUOUS
100
AcDbCircle
 10
1792.988549599717
 20
1382.879105766204
 30
0.0
 40
42.97836688373009
100
AcDbArc
 50
156.3241931827936
 51
170.5324702247469
  0
ARC
  5
8D5
330
1F
100
AcDbEntity
  8
0
  6
CONTINUOUS
100
AcDbCircle
 10
1792.988549599717
 20
1382.879105766204
 30
0.0
 40
36.97836688373008
100
AcDbArc
 50
156.3241931827936
 51
168.9784565766229
  0
LINE
  5
8D6
330
1F
100
AcDbEntity
  8
0
100
AcDbLine
 10
1760.692235041628
 20
1385.948558848871
 30
0.0
 11
1760.692235041628
 21
1389.948558848871
 31
0.0
  0
ARC
  5
8D7
330
1F
100
AcDbEntity
  8
0
100
AcDbCircle
 10
1760.692235041628
 20
1382.948558848871
 30
0.0
 40
3.000000000000056
100
AcDbArc
 50
270.0
 51
90.0
  0
ARC
  5
8D8
330
1F
100
AcDbEntity
  8
0
  6
CONTINUOUS
100
AcDbCircle
 10
1710.592114812615
 20
1376.807937646458
 30
0.0
 40
26.38058376875362
100
AcDbArc
 50
233.4502932851103
 51
330.4747204371001
  0
ARC
  5
8D9
330
1F
100
AcDbEntity
  8
0
  6
CONTINUOUS
100
AcDbCircle
 10
1711.039298722393
 20
1376.201832200153
 30
0.0
 40
19.7020449873939
100
AcDbArc
 50
232.7232973074538
 51
330.3990958276485
  0
ARC
  5
8DA
330
1F
100
AcDbEntity
  8
0
  6
CONTINUOUS
100
AcDbCircle
 10
1706.20987622608
 20
1373.991198504696
 30
0.0
 40
10.98638464699961
100
AcDbArc
 50
56.39627089675918
 51
141.8140803917553
  0
ARC
  5
8DB
330
1F
100
AcDbEntity
  8
0
  6
CONTINUOUS
100
AcDbCircle
 10
1704.185521623071
 20
1375.471552451395
 30
0.0
 40
13.29758727790373
100
AcDbArc
 50
44.93941112916744
 51
134.4307956862815
  0
LINE
  5
8DC
330
1F
100
AcDbEntity
  8
0
100
AcDbLine
 10
1727.328130390346
 20
1483.692757191167
 30
0.0
 11
1760.692235041628
 21
1483.692757191167
 31
0.0
  0
LINE
  5
8DD
330
1F
100
AcDbEntity
  8
0
100
AcDbLine
 10
1760.692235041628
 20
1479.692757191167
 30
0.0
 11
1727.328130390346
 21
1479.692757191167
 31
0.0
  0
LINE
  5
8DE
330
1F
100
AcDbEntity
  8
0
100
AcDbLine
 10
1727.328130390346
 20
1479.692757191167
 30
0.0
 11
1727.328130390346
 21
1483.692757191167
 31
0.0
  0
LINE
  5
8DF
330
1F
100
AcDbEntity
  8
0
100
AcDbLine
 10
1760.692235041628
 20
1479.692757191167
 30
0.0
 11
1760.692235041628
 21
1483.692757191167
 31
0.0
  0
POLYLINE
  5
8E0
330
1F
100
AcDbEntity
  8
0
  6
CONTINUOUS
100
AcDb2dPolyline
 66
     1
 10
0.0
 20
0.0
 30
0.0
  0
VERTEX
  5
11EB
330
8E0
100
AcDbEntity
  8
0
  6
CONTINUOUS
100
AcDbVertex
100
AcDb2dVertex
 10
1737.134301919227
 20
1479.692757191167
 30
0.0
 42
-0.0406020746902253
  0
VERTEX
  5
11EC
330
8E0
100
AcDbEntity
  8
0
  6
CONTINUOUS
100
AcDbVertex
100
AcDb2dVertex
 10
1734.508623359434
 20
1467.050596464386
 30
0.0
  0
SEQEND
  5
11ED
330
8E0
100
AcDbEntity
  8
0
  6
CONTINUOUS
  0
POLYLINE
  5
8E1
330
1F
100
AcDbEntity
  8
0
  6
CONTINUOUS
100
AcDb2dPolyline
 66
     1
 10
0.0
 20
0.0
 30
0.0
  0
VERTEX
  5
11EE
330
8E1
100
AcDbEntity
  8
0
  6
CONTINUOUS
100
AcDbVertex
100
AcDb2dVertex
 10
1731.084353401261
 20
1479.692757191167
 30
0.0
 42
-0.0363948171192986
  0
VERTEX
  5
11EF
330
8E1
100
AcDbEntity
  8
0
  6
CONTINUOUS
100
AcDbVertex
100
AcDb2dVertex
 10
1728.889256688765
 20
1469.214806796389
 30
0.0
  0
SEQEND
  5
11F0
330
8E1
100
AcDbEntity
  8
0
  6
CONTINUOUS
  0
POLYLINE
  5
8E2
330
1F
100
AcDbEntity
  8
0
  6
CONTINUOUS
100
AcDb2dPolyline
 66
     1
 10
0.0
 20
0.0
 30
0.0
  0
VERTEX
  5
11F1
330
8E2
100
AcDbEntity
  8
0
  6
CONTINUOUS
100
AcDbVertex
100
AcDb2dVertex
 10
1750.886063512748
 20
1479.692757191167
 30
0.0
 42
0.0406020746902253
  0
VERTEX
  5
11F2
330
8E2
100
AcDbEntity
  8
0
  6
CONTINUOUS
100
AcDbVertex
100
AcDb2dVertex
 10
1753.51174207254
 20
1467.050596464386
 30
0.0
  0
SEQEND
  5
11F3
330
8E2
100
AcDbEntity
  8
0
  6
CONTINUOUS
  0
POLYLINE
  5
8E3
330
1F
100
AcDbEntity
  8
0
  6
CONTINUOUS
100
AcDb2dPolyline
 66
     1
 10
0.0
 20
0.0
 30
0.0
  0
VERTEX
  5
11F4
330
8E3
100
AcDbEntity
  8
0
  6
CONTINUOUS
100
AcDbVertex
100
AcDb2dVertex
 10
1756.936012030714
 20
1479.692757191167
 30
0.0
 42
0.0363948171192986
  0
VERTEX
  5
11F5
330
8E3
100
AcDbEntity
  8
0
  6
CONTINUOUS
100
AcDbVertex
100
AcDb2dVertex
 10
1759.131108743208
 20
1469.214806796389
 30
0.0
  0
SEQEND
  5
11F6
330
8E3
100
AcDbEntity
  8
0
  6
CONTINUOUS
  0
POLYLINE
  5
8E4
330
1F
100
AcDbEntity
  8
0
  6
CONTINUOUS
100
AcDb2dPolyline
 66
     1
 10
0.0
 20
0.0
 30
0.0
  0
VERTEX
  5
11F7
330
8E4
100
AcDbEntity
  8
0
  6
CONTINUOUS
100
AcDbVertex
100
AcDb2dVertex
 10
1677.475225573451
 20
1446.266279796175
 30
0.0
  0
VERTEX
  5
11F8
330
8E4
100
AcDbEntity
  8
0
  6
CONTINUOUS
100
AcDbVertex
100
AcDb2dVertex
 10
1677.647531851004
 20
1447.927253137858
 30
0.0
 42
0.5016049534703276
  0
VERTEX
  5
11F9
330
8E4
100
AcDbEntity
  8
0
  6
CONTINUOUS
100
AcDbVertex
100
AcDb2dVertex
 10
1678.459868579174
 20
1457.795963731508
 30
0.0
 42
0.5731451722580876
  0
VERTEX
  5
11FA
330
8E4
100
AcDbEntity
  8
0
  6
CONTINUOUS
100
AcDbVertex
100
AcDb2dVertex
 10
1658.198512545718
 20
1452.024252893175
 30
0.0
 42
0.1994211041236551
  0
VERTEX
  5
11FB
330
8E4
100
AcDbEntity
  8
0
  6
CONTINUOUS
100
AcDbVertex
100
AcDb2dVertex
 10
1659.453979974446
 20
1439.656282676835
 30
0.0
 42
0.1912321573076029
  0
VERTEX
  5
11FC
330
8E4
100
AcDbEntity
  8
0
  6
CONTINUOUS
100
AcDbVertex
100
AcDb2dVertex
 10
1672.459459961119
 20
1429.48695564639
 30
0.0
 42
0.143630861908326
  0
VERTEX
  5
11FD
330
8E4
100
AcDbEntity
  8
0
  6
CONTINUOUS
100
AcDbVertex
100
AcDb2dVertex
 10
1691.669098017517
 20
1429.570108749464
 30
0.0
 42
0.2016233873508618
  0
VERTEX
  5
11FE
330
8E4
100
AcDbEntity
  8
0
  6
CONTINUOUS
100
AcDbVertex
100
AcDb2dVertex
 10
1722.663329556099
 20
1454.48681393693
 30
0.0
 42
0.0544492341104313
  0
VERTEX
  5
11FF
330
8E4
100
AcDbEntity
  8
0
  6
CONTINUOUS
100
AcDbVertex
100
AcDb2dVertex
 10
1728.889256688765
 20
1469.214806796389
 30
0.0
 42
0.056122523359716
  0
SEQEND
  5
1200
330
8E4
100
AcDbEntity
  8
0
  6
CONTINUOUS
  0
POLYLINE
  5
8E5
330
1F
100
AcDbEntity
  8
0
  6
CONTINUOUS
100
AcDb2dPolyline
 66
     1
 10
0.0
 20
0.0
 30
0.0
  0
VERTEX
  5
1201
330
8E5
100
AcDbEntity
  8
0
  6
CONTINUOUS
100
AcDbVertex
100
AcDb2dVertex
 10
1677.475225573451
 20
1446.266279796175
 30
0.0
 42
0.6244873880121949
  0
VERTEX
  5
1202
330
8E5
100
AcDbEntity
  8
0
  6
CONTINUOUS
100
AcDbVertex
100
AcDb2dVertex
 10
1682.622453012055
 20
1462.117208801051
 30
0.0
 42
0.5712699294635224
  0
VERTEX
  5
1203
330
8E5
100
AcDbEntity
  8
0
  6
CONTINUOUS
100
AcDbVertex
100
AcDb2dVertex
 10
1652.419715861494
 20
1453.641545015269
 30
0.0
 42
0.1992749000703595
  0
VERTEX
  5
1204
330
8E5
100
AcDbEntity
  8
0
  6
CONTINUOUS
100
AcDbVertex
100
AcDb2dVertex
 10
1654.223938947017
 20
1436.714384904451
 30
0.0
 42
0.1922899288213652
  0
VERTEX
  5
1205
330
8E5
100
AcDbEntity
  8
0
  6
CONTINUOUS
100
AcDbVertex
100
AcDb2dVertex
 10
1670.782264423922
 20
1423.726124056058
 30
0.0
 42
0.1435180749715141
  0
VERTEX
  5
1206
330
8E5
100
AcDbEntity
  8
0
  6
CONTINUOUS
100
AcDbVertex
100
AcDb2dVertex
 10
1693.352366507583
 20
1423.810988931839
 30
0.0
 42
0.2013051193684176
  0
VERTEX
  5
1207
330
8E5
100
AcDbEntity
  8
0
  6
CONTINUOUS
100
AcDbVertex
100
AcDb2dVertex
 10
1727.922294168481
 20
1451.598099767745
 30
0.0
 42
0.0525451820212675
  0
VERTEX
  5
1208
330
8E5
100
AcDbEntity
  8
0
  6
CONTINUOUS
100
AcDbVertex
100
AcDb2dVertex
 10
1734.508623359434
 20
1467.050596464386
 30
0.0
  0
SEQEND
  5
1209
330
8E5
100
AcDbEntity
  8
0
  6
CONTINUOUS
  0
ARC
  5
8E6
330
1F
100
AcDbEntity
  8
0
  6
CONTINUOUS
100
AcDbCircle
 10
1791.285545452642
 20
1379.136705024282
 30
0.0
 40
38.35657218847958
100
AcDbArc
 50
331.8450300399697
 51
90.31229057794458
  0
ARC
  5
8E7
330
1F
100
AcDbEntity
  8
0
  6
CONTINUOUS
100
AcDbCircle
 10
1791.285545452642
 20
1379.136705024282
 30
0.0
 40
44.35657218847958
100
AcDbArc
 50
331.8719099881548
 51
90.25584162028195
  0
ARC
  5
8E8
330
1F
100
AcDbEntity
  8
0
  6
CONTINUOUS
100
AcDbCircle
 10
1780.052725474733
 20
1370.293723513449
 30
0.0
 40
19.6644356743196
100
AcDbArc
 50
311.716819306387
 51
48.26222023342971
  0
ARC
  5
8E9
330
1F
100
AcDbEntity
  8
0
  6
CONTINUOUS
100
AcDbCircle
 10
1778.958881634262
 20
1371.464572318315
 30
0.0
 40
14.79145401338622
100
AcDbArc
 50
312.3009873069365
 51
39.0499266214951
  0
ARC
  5
8EA
330
1F
100
AcDbEntity
  8
0
  6
CONTINUOUS
100
AcDbCircle
 10
1781.810489205895
 20
1373.991198504696
 30
0.0
 40
10.98638464699961
100
AcDbArc
 50
38.18591960824463
 51
123.6037291032408
  0
ARC
  5
8EB
330
1F
100
AcDbEntity
  8
0
  6
CONTINUOUS
100
AcDbCircle
 10
1783.834843808902
 20
1375.471552451395
 30
0.0
 40
13.29758727790373
100
AcDbArc
 50
45.56920431371849
 51
135.0605888708325
  0
LINE
  5
8EC
330
1F
100
AcDbEntity
  8
0
  6
CONTINUOUS
100
AcDbLine
 10
1775.730121217836
 20
1383.14159591364
 30
0.0
 11
1774.422091686931
 21
1384.86441808994
 31
0.0
  0
POLYLINE
  5
8ED
330
1F
100
AcDbEntity
  8
0
  6
CONTINUOUS
100
AcDb2dPolyline
 66
     1
 10
0.0
 20
0.0
 30
0.0
  0
VERTEX
  5
120A
330
8ED
100
AcDbEntity
  8
0
  6
CONTINUOUS
100
AcDbVertex
100
AcDb2dVertex
 10
1790.013060292672
 20
1516.292854286734
 30
0.0
  0
VERTEX
  5
120B
330
8ED
100
AcDbEntity
  8
0
  6
CONTINUOUS
100
AcDbVertex
100
AcDb2dVertex
 10
1790.764937509521
 20
1514.801813527451
 30
0.0
 42
0.5016049534703276
  0
VERTEX
  5
120C
330
8ED
100
AcDbEntity
  8
0
  6
CONTINUOUS
100
AcDbVertex
100
AcDb2dVertex
 10
1795.410183765131
 20
1506.056927766853
 30
0.0
 42
0.5731451722580876
  0
VERTEX
  5
120D
330
8ED
100
AcDbEntity
  8
0
  6
CONTINUOUS
100
AcDbVertex
100
AcDb2dVertex
 10
1809.346991123754
 20
1521.855680722843
 30
0.0
 42
0.1994211041236551
  0
VERTEX
  5
120E
330
8ED
100
AcDbEntity
  8
0
  6
CONTINUOUS
100
AcDbVertex
100
AcDb2dVertex
 10
1801.611762284973
 20
1531.587541826897
 30
0.0
 42
0.1912321573076029
  0
VERTEX
  5
120F
330
8ED
100
AcDbEntity
  8
0
  6
CONTINUOUS
100
AcDbVertex
100
AcDb2dVertex
 10
1785.174093118676
 20
1533.124016465574
 30
0.0
 42
0.143630861908326
  0
VERTEX
  5
1210
330
8ED
100
AcDbEntity
  8
0
  6
CONTINUOUS
100
AcDbVertex
100
AcDb2dVertex
 10
1769.05074581609
 20
1522.681086778148
 30
0.0
 42
0.1577079741972947
  0
VERTEX
  5
1211
330
8ED
100
AcDbEntity
  8
0
  6
CONTINUOUS
100
AcDbVertex
100
AcDb2dVertex
 10
1756.509197070582
 20
1493.692757191167
 30
0.0
 42
0.1577079741972947
  0
SEQEND
  5
1212
330
8ED
100
AcDbEntity
  8
0
  6
CONTINUOUS
  0
POLYLINE
  5
8EE
330
1F
100
AcDbEntity
  8
0
  6
CONTINUOUS
100
AcDb2dPolyline
 66
     1
 10
0.0
 20
0.0
 30
0.0
  0
VERTEX
  5
1213
330
8EE
100
AcDbEntity
  8
0
  6
CONTINUOUS
100
AcDbVertex
100
AcDb2dVertex
 10
1790.013060292672
 20
1516.292854286734
 30
0.0
 42
0.624487388012175
  0
VERTEX
  5
1214
330
8EE
100
AcDbEntity
  8
0
  6
CONTINUOUS
100
AcDbVertex
100
AcDb2dVertex
 10
1794.240058808835
 20
1500.172110378135
 30
0.0
 42
0.5712699294635224
  0
VERTEX
  5
1215
330
8EE
100
AcDbEntity
  8
0
  6
CONTINUOUS
100
AcDbVertex
100
AcDb2dVertex
 10
1815.084168455691
 20
1523.614919532018
 30
0.0
 42
0.1992749000703595
  0
VERTEX
  5
1216
330
8EE
100
AcDbEntity
  8
0
  6
CONTINUOUS
100
AcDbVertex
100
AcDb2dVertex
 10
1804.425166158279
 20
1536.887810716058
 30
0.0
 42
0.1922899288213652
  0
VERTEX
  5
1217
330
8EE
100
AcDbEntity
  8
0
  6
CONTINUOUS
100
AcDbVertex
100
AcDb2dVertex
 10
1783.474974348912
 20
1538.878420073978
 30
0.0
 42
0.1435180749715141
  0
VERTEX
  5
1218
330
8EE
100
AcDbEntity
  8
0
  6
CONTINUOUS
100
AcDbVertex
100
AcDb2dVertex
 10
1764.524136890772
 20
1526.6194450047
 30
0.0
 42
0.1601386182095308
  0
VERTEX
  5
1219
330
8EE
100
AcDbEntity
  8
0
  6
CONTINUOUS
100
AcDbVertex
100
AcDb2dVertex
 10
1750.484631598678
 20
1493.692757191167
 30
0.0
 42
0.1601386182095308
  0
SEQEND
  5
121A
330
8EE
100
AcDbEntity
  8
0
  6
CONTINUOUS
  0
LINE
  5
8EF
330
1F
100
AcDbEntity
  8
0
100
AcDbLine
 10
1727.328130390346
 20
1493.692757191167
 30
0.0
 11
1760.692235041628
 21
1493.692757191167
 31
0.0
  0
LINE
  5
8F0
330
1F
100
AcDbEntity
  8
0
100
AcDbLine
 10
1727.328130390346
 20
1489.692757191168
 30
0.0
 11
1760.692235041628
 21
1489.692757191168
 31
0.0
  0
LINE
  5
8F1
330
1F
100
AcDbEntity
  8
0
100
AcDbLine
 10
1727.328130390346
 20
1489.692757191168
 30
0.0
 11
1727.328130390346
 21
1493.692757191167
 31
0.0
  0
LINE
  5
8F2
330
1F
100
AcDbEntity
  8
0
100
AcDbLine
 10
1760.692235041628
 20
1489.692757191168
 30
0.0
 11
1760.692235041628
 21
1493.692757191167
 31
0.0
  0
POLYLINE
  5
8F3
330
1F
100
AcDbEntity
  8
0
  6
CONTINUOUS
100
AcDb2dPolyline
 66
     1
 10
0.0
 20
0.0
 30
0.0
  0
VERTEX
  5
121B
330
8F3
100
AcDbEntity
  8
0
  6
CONTINUOUS
100
AcDbVertex
100
AcDb2dVertex
 10
1698.007305139303
 20
1516.292854286734
 30
0.0
 42
-0.624487388012175
  0
VERTEX
  5
121C
330
8F3
100
AcDbEntity
  8
0
  6
CONTINUOUS
100
AcDbVertex
100
AcDb2dVertex
 10
1693.780306623139
 20
1500.172110378135
 30
0.0
 42
-0.5712699294635224
  0
VERTEX
  5
121D
330
8F3
100
AcDbEntity
  8
0
  6
CONTINUOUS
100
AcDbVertex
100
AcDb2dVertex
 10
1672.936196976283
 20
1523.614919532018
 30
0.0
 42
-0.1992749000703595
  0
VERTEX
  5
121E
330
8F3
100
AcDbEntity
  8
0
  6
CONTINUOUS
100
AcDbVertex
100
AcDb2dVertex
 10
1683.595199273696
 20
1536.887810716058
 30
0.0
 42
-0.1922899288213652
  0
VERTEX
  5
121F
330
8F3
100
AcDbEntity
  8
0
  6
CONTINUOUS
100
AcDbVertex
100
AcDb2dVertex
 10
1704.545391083061
 20
1538.878420073978
 30
0.0
 42
-0.1435180749715141
  0
VERTEX
  5
1220
330
8F3
100
AcDbEntity
  8
0
  6
CONTINUOUS
100
AcDbVertex
100
AcDb2dVertex
 10
1723.496228541202
 20
1526.6194450047
 30
0.0
 42
-0.1601386182095308
  0
VERTEX
  5
1221
330
8F3
100
AcDbEntity
  8
0
  6
CONTINUOUS
100
AcDbVertex
100
AcDb2dVertex
 10
1737.535733833296
 20
1493.692757191167
 30
0.0
 42
-0.1601386182095308
  0
SEQEND
  5
1222
330
8F3
100
AcDbEntity
  8
0
  6
CONTINUOUS
  0
POLYLINE
  5
8F4
330
1F
100
AcDbEntity
  8
0
  6
CONTINUOUS
100
AcDb2dPolyline
 66
     1
 10
0.0
 20
0.0
 30
0.0
  0
VERTEX
  5
1223
330
8F4
100
AcDbEntity
  8
0
  6
CONTINUOUS
100
AcDbVertex
100
AcDb2dVertex
 10
1698.007305139303
 20
1516.292854286734
 30
0.0
  0
VERTEX
  5
1224
330
8F4
100
AcDbEntity
  8
0
  6
CONTINUOUS
100
AcDbVertex
100
AcDb2dVertex
 10
1697.255427922454
 20
1514.801813527451
 30
0.0
 42
-0.5016049534703276
  0
VERTEX
  5
1225
330
8F4
100
AcDbEntity
  8
0
  6
CONTINUOUS
100
AcDbVertex
100
AcDb2dVertex
 10
1692.610181666844
 20
1506.056927766853
 30
0.0
 42
-0.5731451722580876
  0
VERTEX
  5
1226
330
8F4
100
AcDbEntity
  8
0
  6
CONTINUOUS
100
AcDbVertex
100
AcDb2dVertex
 10
1678.673374308221
 20
1521.855680722843
 30
0.0
 42
-0.1994211041236551
  0
VERTEX
  5
1227
330
8F4
100
AcDbEntity
  8
0
  6
CONTINUOUS
100
AcDbVertex
100
AcDb2dVertex
 10
1686.408603147002
 20
1531.587541826897
 30
0.0
 42
-0.1912321573076029
  0
VERTEX
  5
1228
330
8F4
100
AcDbEntity
  8
0
  6
CONTINUOUS
100
AcDbVertex
100
AcDb2dVertex
 10
1702.846272313298
 20
1533.124016465574
 30
0.0
 42
-0.143630861908326
  0
VERTEX
  5
1229
330
8F4
100
AcDbEntity
  8
0
  6
CONTINUOUS
100
AcDbVertex
100
AcDb2dVertex
 10
1718.969619615884
 20
1522.681086778148
 30
0.0
 42
-0.1577079741972947
  0
VERTEX
  5
122A
330
8F4
100
AcDbEntity
  8
0
  6
CONTINUOUS
100
AcDbVertex
100
AcDb2dVertex
 10
1731.511168361391
 20
1493.692757191167
 30
0.0
 42
-0.1577079741972947
  0
SEQEND
  5
122B
330
8F4
100
AcDbEntity
  8
0
  6
CONTINUOUS
  0
ARC
  5
8F5
330
1F
100
AcDbEntity
  8
0
  6
CONTINUOUS
100
AcDbCircle
 10
740.1351827159786
 20
2271.881120718934
 30
0.0
 40
495.5
100
AcDbArc
 50
248.2171557125386
 51
299.4575156206558
  0
ARC
  5
8F6
330
1F
100
AcDbEntity
  8
0
  6
CONTINUOUS
100
AcDbCircle
 10
740.1351827159786
 20
2271.881120718934
 30
0.0
 40
525.4999999999999
100
AcDbArc
 50
249.5185044180214
 51
299.5689203586515
  0
LINE
  5
8F7
330
1F
100
AcDbEntity
  8
0
  6
CONTINUOUS
 62
     7
100
AcDbLine
 10
534.9601827159665
 20
1808.628220412589
 30
0.0
 11
534.9601827159665
 21
1734.628220412589
 31
0.0
  0
LINE
  5
8F8
330
1F
100
AcDbEntity
  8
0
  6
CONTINUOUS
 62
     7
100
AcDbLine
 10
514.9601827159665
 20
1808.628220412589
 30
0.0
 11
514.9601827159665
 21
1734.628220412589
 31
0.0
  0
LINE
  5
8F9
330
1F
100
AcDbEntity
  8
0
  6
CONTINUOUS
 62
     7
100
AcDbLine
 10
534.9601827159665
 20
1731.628220412589
 30
0.0
 11
534.9601827159665
 21
1657.628220412589
 31
0.0
  0
LINE
  5
8FA
330
1F
100
AcDbEntity
  8
0
  6
CONTINUOUS
 62
     7
100
AcDbLine
 10
514.9601827159665
 20
1657.628220412589
 30
0.0
 11
514.9601827159665
 21
1731.628220412589
 31
0.0
  0
ARC
  5
8FB
330
1F
100
AcDbEntity
  8
0
100
AcDbCircle
 10
579.4972604619877
 20
1698.055211180244
 30
0.0
 40
27.47268131795497
100
AcDbArc
 50
147.7604243756004
 51
212.2395756243995
  0
LINE
  5
8FC
330
1F
100
AcDbEntity
  8
0
100
AcDbLine
 10
550.2459299027803
 20
1696.444985980695
 30
0.0
 11
534.9601827159665
 21
1698.10531482935
 31
0.0
  0
LINE
  5
8FD
330
1F
100
AcDbEntity
  8
0
100
AcDbLine
 10
534.9601827159683
 20
1698.968352893856
 30
0.0
 11
551.7610068484907
 21
1698.968352893856
 31
0.0
  0
LINE
  5
8FE
330
1F
100
AcDbEntity
  8
0
100
AcDbLine
 10
533.5800057388994
 20
1651.063114532484
 30
0.0
 11
555.2961993486612
 21
1653.586470000975
 31
0.0
  0
LINE
  5
8FF
330
1F
100
AcDbEntity
  8
0
100
AcDbLine
 10
555.2961993486612
 20
1653.586470000975
 30
0.0
 11
531.5599096247031
 21
1654.595821344108
 31
0.0
  0
ARC
  5
900
330
1F
100
AcDbEntity
  8
0
  6
CONTINUOUS
 62
     7
100
AcDbCircle
 10
515.9601827159665
 20
1657.128220412589
 30
0.0
 40
0.5
100
AcDbArc
 50
90.0
 51
180.0
  0
LINE
  5
901
330
1F
100
AcDbEntity
  8
0
  6
CONTINUOUS
 62
     7
100
AcDbLine
 10
534.9601827159683
 20
1657.628220412589
 30
0.0
 11
514.9601827159665
 21
1657.628220412589
 31
0.0
  0
ARC
  5
902
330
1F
100
AcDbEntity
  8
0
  6
CONTINUOUS
 62
     7
100
AcDbCircle
 10
515.9601827159665
 20
1656.128220412589
 30
0.0
 40
0.5
100
AcDbArc
 50
180.0
 51
270.0
  0
ARC
  5
903
330
1F
100
AcDbEntity
  8
0
  6
CONTINUOUS
 62
     7
100
AcDbCircle
 10
533.9601827159665
 20
1657.128220412589
 30
0.0
 40
0.5
100
AcDbArc
 50
0.0
 51
90.0
  0
LINE
  5
904
330
1F
100
AcDbEntity
  8
0
  6
CONTINUOUS
 62
     7
100
AcDbLine
 10
534.4601827159665
 20
1657.128220412589
 30
0.0
 11
534.4601827159665
 21
1656.128220412589
 31
0.0
  0
LINE
  5
905
330
1F
100
AcDbEntity
  8
0
  6
CONTINUOUS
 62
     7
100
AcDbLine
 10
532.9601827159665
 20
1657.628220412589
 30
0.0
 11
516.9601827159665
 21
1657.628220412589
 31
0.0
  0
LINE
  5
906
330
1F
100
AcDbEntity
  8
0
  6
CONTINUOUS
 62
     7
100
AcDbLine
 10
533.9601827159665
 20
1655.628220412589
 30
0.0
 11
515.9601827159665
 21
1655.628220412589
 31
0.0
  0
ARC
  5
907
330
1F
100
AcDbEntity
  8
0
  6
CONTINUOUS
 62
     7
100
AcDbCircle
 10
533.9601827159665
 20
1656.128220412589
 30
0.0
 40
0.5
100
AcDbArc
 50
270.0
 51
0.0
  0
LINE
  5
908
330
1F
100
AcDbEntity
  8
0
  6
CONTINUOUS
 62
     7
100
AcDbLine
 10
515.4601827159665
 20
1656.128220412589
 30
0.0
 11
515.4601827159665
 21
1657.128220412589
 31
0.0
  0
LINE
  5
909
330
1F
100
AcDbEntity
  8
0
100
AcDbLine
 10
534.9601827159665
 20
1740.556425393191
 30
0.0
 11
556.3077929067155
 21
1742.926717453817
 31
0.0
  0
LINE
  5
90A
330
1F
100
AcDbEntity
  8
0
100
AcDbLine
 10
534.9601827159665
 20
1746.176251985976
 30
0.0
 11
554.7927159610051
 21
1747.468775608574
 31
0.0
  0
LINE
  5
90B
330
1F
100
AcDbEntity
  8
0
100
AcDbLine
 10
551.8430836415216
 20
1785.563451368781
 30
0.0
 11
542.3189096857502
 21
1783.659950744107
 31
0.0
  0
LINE
  5
90C
330
1F
100
AcDbEntity
  8
0
100
AcDbLine
 10
553.747937872941
 20
1782.390954142548
 30
0.0
 11
534.9601827159683
 21
1781.475124539617
 31
0.0
  0
LINE
  5
90D
330
1F
100
AcDbEntity
  8
0
  6
CONTINUOUS
 62
     7
100
AcDbLine
 10
514.9601827159665
 20
1731.628220412589
 30
0.0
 11
534.9601827159647
 21
1731.62822041259
 31
0.0
  0
LINE
  5
90E
330
1F
100
AcDbEntity
  8
0
  6
CONTINUOUS
 62
     7
100
AcDbLine
 10
534.9601827159665
 20
1734.628220412589
 30
0.0
 11
514.9601827159665
 21
1734.628220412589
 31
0.0
  0
LINE
  5
90F
330
1F
100
AcDbEntity
  8
0
  6
CONTINUOUS
 62
     7
100
AcDbLine
 10
534.4601827159665
 20
1734.628220412589
 30
0.0
 11
534.4601827159665
 21
1731.628220412589
 31
0.0
  0
LINE
  5
910
330
1F
100
AcDbEntity
  8
0
  6
CONTINUOUS
 62
     7
100
AcDbLine
 10
515.4601827159665
 20
1734.628220412589
 30
0.0
 11
515.4601827159665
 21
1731.628220412589
 31
0.0
  0
ARC
  5
911
330
1F
100
AcDbEntity
  8
0
100
AcDbCircle
 10
584.6758925236834
 20
1786.657453223395
 30
0.0
 40
30.75581818224811
100
AcDbArc
 50
157.5050578834445
 51
202.4949421165554
  0
ARC
  5
912
330
1F
100
AcDbEntity
  8
0
100
AcDbCircle
 10
589.2327968419165
 20
1894.027902093959
 30
0.0
 40
20.57910459210134
100
AcDbArc
 50
250.4212998175249
 51
0.3188935194606299
  0
ARC
  5
913
330
1F
100
AcDbEntity
  8
0
100
AcDbCircle
 10
581.8354607190401
 20
1890.431112835385
 30
0.0
 40
17.52038392394176
100
AcDbArc
 50
334.6703494387716
 51
23.56109749157401
  0
ARC
  5
914
330
1F
100
AcDbEntity
  8
0
100
AcDbCircle
 10
597.2016693081465
 20
1870.877004695357
 30
0.0
 40
70.94624093454081
100
AcDbArc
 50
146.4819733893641
 51
180.6633161739189
  0
ARC
  5
915
330
1F
100
AcDbEntity
  8
0
100
AcDbCircle
 10
668.0329411402824
 20
1870.172288867518
 30
0.0
 40
111.7728192568552
100
AcDbArc
 50
167.0823497460962
 51
180.0597774704437
  0
ARC
  5
916
330
1F
100
AcDbEntity
  8
0
100
AcDbCircle
 10
576.9578461638873
 20
1884.852302644288
 30
0.0
 40
1.128188444007362
100
AcDbArc
 50
15.08734805234863
 51
168.5043254183106
  0
ARC
  5
917
330
1F
100
AcDbEntity
  8
0
100
AcDbCircle
 10
471.0157416013069
 20
1819.840734118076
 30
0.0
 40
59.25027723911768
100
AcDbArc
 50
351.0550895839195
 51
21.18930801964145
  0
LINE
  5
918
330
1F
100
AcDbEntity
  8
0
100
AcDbLine
 10
526.2601827159731
 20
1870.055674777247
 30
0.0
 11
526.2601827159658
 21
1810.628220412589
 31
0.0
  0
LINE
  5
919
330
1F
100
AcDbEntity
  8
0
100
AcDbLine
 10
521.2601827159658
 20
1857.628220412587
 30
0.0
 11
521.2601827159694
 21
1810.628220412589
 31
0.0
  0
LINE
  5
91A
330
1F
100
AcDbEntity
  8
0
100
AcDbLine
 10
553.7536921909747
 20
1813.567376084368
 30
0.0
 11
534.9601827159665
 21
1808.350628369328
 31
0.0
  0
LINE
  5
91B
330
1F
100
AcDbEntity
  8
0
100
AcDbLine
 10
535.9752017397592
 20
1807.2223816319
 30
0.0
 11
553.7536921909747
 21
1810.394878858133
 31
0.0
  0
LINE
  5
91C
330
1F
100
AcDbEntity
  8
0
  6
CONTINUOUS
 62
     7
100
AcDbLine
 10
534.9601827159683
 20
1808.628220412589
 30
0.0
 11
514.9601827159665
 21
1808.628220412589
 31
0.0
  0
ARC
  5
91D
330
1F
100
AcDbEntity
  8
0
  6
CONTINUOUS
 62
     7
100
AcDbCircle
 10
515.9601827159665
 20
1809.128220412589
 30
0.0
 40
0.5
100
AcDbArc
 50
180.0
 51
270.0
  0
ARC
  5
91E
330
1F
100
AcDbEntity
  8
0
  6
CONTINUOUS
 62
     7
100
AcDbCircle
 10
515.9601827159665
 20
1810.128220412589
 30
0.0
 40
0.5
100
AcDbArc
 50
90.0
 51
180.0
  0
ARC
  5
91F
330
1F
100
AcDbEntity
  8
0
  6
CONTINUOUS
 62
     7
100
AcDbCircle
 10
533.9601827159665
 20
1809.128220412589
 30
0.0
 40
0.5
100
AcDbArc
 50
270.0
 51
0.0
  0
LINE
  5
920
330
1F
100
AcDbEntity
  8
0
  6
CONTINUOUS
 62
     7
100
AcDbLine
 10
534.4601827159665
 20
1810.128220412589
 30
0.0
 11
534.4601827159665
 21
1809.128220412589
 31
0.0
  0
ARC
  5
921
330
1F
100
AcDbEntity
  8
0
  6
CONTINUOUS
 62
     7
100
AcDbCircle
 10
533.9601827159665
 20
1810.128220412589
 30
0.0
 40
0.5
100
AcDbArc
 50
0.0
 51
90.0
  0
LINE
  5
922
330
1F
100
AcDbEntity
  8
0
  6
CONTINUOUS
 62
     7
100
AcDbLine
 10
533.9601827159665
 20
1810.628220412589
 30
0.0
 11
515.9601827159665
 21
1810.628220412589
 31
0.0
  0
LINE
  5
923
330
1F
100
AcDbEntity
  8
0
  6
CONTINUOUS
 62
     7
100
AcDbLine
 10
515.4601827159665
 20
1810.128220412589
 30
0.0
 11
515.4601827159665
 21
1809.128220412589
 31
0.0
  0
LINE
  5
924
330
1F
100
AcDbEntity
  8
0
100
AcDbLine
 10
549.3109893042026
 20
1850.400821953931
 30
0.0
 11
530.8975604026934
 21
1849.131825352372
 31
0.0
  0
LINE
  5
925
330
1F
100
AcDbEntity
  8
0
100
AcDbLine
 10
530.8975604026934
 20
1846.593820704581
 30
0.0
 11
550.580885645061
 21
1848.497321329257
 31
0.0
  0
LINE
  5
926
330
1F
100
AcDbEntity
  8
0
100
AcDbLine
 10
521.2601827159676
 20
1857.628220412587
 30
0.0
 11
471.2601827159639
 21
1857.628220412587
 31
0.0
  0
ARC
  5
927
330
1F
100
AcDbEntity
  8
0
100
AcDbCircle
 10
509.2837446346372
 20
1849.404981045301
 30
0.0
 40
18.83062952425546
100
AcDbArc
 50
334.3603398614806
 51
25.63966013851934
  0
ARC
  5
928
330
1F
100
AcDbEntity
  8
0
100
AcDbCircle
 10
568.4990881495803
 20
1849.404981045301
 30
0.0
 40
14.70319572620801
100
AcDbArc
 50
146.3458272488429
 51
213.654172751157
  0
LINE
  5
929
330
1F
100
AcDbEntity
  8
0
100
AcDbLine
 10
556.2601827159713
 20
1857.553180745258
 30
0.0
 11
556.2601827159713
 21
1860.05669259275
 31
0.0
  0
ARC
  5
92A
330
1F
100
AcDbEntity
  8
0
100
AcDbCircle
 10
588.3700044760378
 20
1888.574568182742
 30
0.0
 40
10.87735064798026
100
AcDbArc
 50
198.3732597270577
 51
328.7731228011123
  0
ARC
  5
92B
330
1F
100
AcDbEntity
  8
0
100
AcDbCircle
 10
587.4963593881063
 20
1885.077143783083
 30
0.0
 40
11.64406992900598
100
AcDbArc
 50
180.0000000000521
 51
243.6972773445043
  0
ARC
  5
92C
330
1F
100
AcDbEntity
  8
0
100
AcDbCircle
 10
571.3266125356719
 20
1887.342869499872
 30
0.0
 40
40.28535091271469
100
AcDbArc
 50
46.26077466636949
 51
145.6849231579733
  0
ARC
  5
92D
330
1F
100
AcDbEntity
  8
0
100
AcDbCircle
 10
578.9342828057913
 20
1888.754182035865
 30
0.0
 40
20.85343364328423
100
AcDbArc
 50
24.59822640886029
 51
162.1129264920377
  0
ARC
  5
92E
330
1F
100
AcDbEntity
  8
0
100
AcDbCircle
 10
575.1839376891118
 20
1891.324003900124
 30
0.0
 40
34.74215562530072
100
AcDbArc
 50
4.653197638994381
 51
46.31755349119578
  0
ARC
  5
92F
330
1F
100
AcDbEntity
  8
0
  6
CONTINUOUS
100
AcDbCircle
 10
1337.260182715978
 20
1301.501156406015
 30
0.0
 40
644.5
100
AcDbArc
 50
56.72882311663937
 51
87.10953775367771
  0
POLYLINE
  5
930
330
1F
100
AcDbEntity
  8
0
100
AcDb2dPolyline
 66
     1
 10
0.0
 20
0.0
 30
0.0
  0
VERTEX
  5
122C
330
930
100
AcDbEntity
  8
0
100
AcDbVertex
100
AcDb2dVertex
 10
1073.268867447629
 20
1928.028212088216
 30
0.0
 42
0.5681703081661911
  0
VERTEX
  5
122D
330
930
100
AcDbEntity
  8
0
100
AcDbVertex
100
AcDb2dVertex
 10
1085.899016885213
 20
1934.971896265377
 30
0.0
 42
0.5532156458823683
  0
VERTEX
  5
122E
330
930
100
AcDbEntity
  8
0
100
AcDbVertex
100
AcDb2dVertex
 10
1063.82815947415
 20
1950.805415978891
 30
0.0
 42
0.1993792027840673
  0
VERTEX
  5
122F
330
930
100
AcDbEntity
  8
0
100
AcDbVertex
100
AcDb2dVertex
 10
1052.058120116182
 20
1939.958847504279
 30
0.0
 42
0.1914771830390936
  0
VERTEX
  5
1230
330
930
100
AcDbEntity
  8
0
100
AcDbVertex
100
AcDb2dVertex
 10
1051.605817275908
 20
1919.032754384316
 30
0.0
 42
0.1895550521567916
  0
VERTEX
  5
1231
330
930
100
AcDbEntity
  8
0
100
AcDbVertex
100
AcDb2dVertex
 10
1065.465871324503
 20
1903.610026995329
 30
0.0
 42
0.1332316775572203
  0
VERTEX
  5
1232
330
930
100
AcDbEntity
  8
0
100
AcDbVertex
100
AcDb2dVertex
 10
1082.494101365668
 20
1901.772113364456
 30
0.0
 42
0.2260302080757815
  0
VERTEX
  5
1233
330
930
100
AcDbEntity
  8
0
100
AcDbVertex
100
AcDb2dVertex
 10
1125.108245192447
 20
1928.339842724867
 30
0.0
 42
-0.0013057695843325
  0
VERTEX
  5
1234
330
930
100
AcDbEntity
  8
0
100
AcDbVertex
100
AcDb2dVertex
 10
1186.72091921844
 20
2016.514800110238
 30
0.0
 42
-0.3387323095208476
  0
VERTEX
  5
1235
330
930
100
AcDbEntity
  8
0
100
AcDbVertex
100
AcDb2dVertex
 10
1269.790510162095
 20
2039.122065170953
 30
0.0
 42
-0.5089655870146698
  0
VERTEX
  5
1236
330
930
100
AcDbEntity
  8
0
100
AcDbVertex
100
AcDb2dVertex
 10
1291.083504420465
 20
1954.272995282367
 30
0.0
 42
-0.4306247850875072
  0
VERTEX
  5
1237
330
930
100
AcDbEntity
  8
0
100
AcDbVertex
100
AcDb2dVertex
 10
1242.765517507813
 20
1951.437304032808
 30
0.0
 42
-0.5168666234664843
  0
VERTEX
  5
1238
330
930
100
AcDbEntity
  8
0
100
AcDbVertex
100
AcDb2dVertex
 10
1248.228146411939
 20
1992.167719456486
 30
0.0
 42
-0.560297429427331
  0
VERTEX
  5
1239
330
930
100
AcDbEntity
  8
0
100
AcDbVertex
100
AcDb2dVertex
 10
1272.759647590816
 20
1978.518972845186
 30
0.0
  0
SEQEND
  5
123A
330
930
100
AcDbEntity
  8
0
  0
POLYLINE
  5
931
330
1F
100
AcDbEntity
  8
0
100
AcDb2dPolyline
 66
     1
 10
0.0
 20
0.0
 30
0.0
  0
VERTEX
  5
123B
330
931
100
AcDbEntity
  8
0
100
AcDbVertex
100
AcDb2dVertex
 10
1269.78541900681
 20
1978.918712039593
 30
0.0
 42
0.4819053559130675
  0
VERTEX
  5
123C
330
931
100
AcDbEntity
  8
0
100
AcDbVertex
100
AcDb2dVertex
 10
1252.754024070044
 20
1987.659182579097
 30
0.0
 42
0.5491356692612987
  0
VERTEX
  5
123D
330
931
100
AcDbEntity
  8
0
100
AcDbVertex
100
AcDb2dVertex
 10
1246.865369239604
 20
1955.81810965221
 30
0.0
 42
0.435841273813761
  0
VERTEX
  5
123E
330
931
100
AcDbEntity
  8
0
100
AcDbVertex
100
AcDb2dVertex
 10
1286.786878607544
 20
1958.492418594111
 30
0.0
 42
0.4947152888906587
  0
VERTEX
  5
123F
330
931
100
AcDbEntity
  8
0
100
AcDbVertex
100
AcDb2dVertex
 10
1269.116259916078
 20
2032.891850399511
 30
0.0
 42
0.3689729359188904
  0
VERTEX
  5
1240
330
931
100
AcDbEntity
  8
0
100
AcDbVertex
100
AcDb2dVertex
 10
1188.483879180849
 20
2008.586245647794
 30
0.0
 42
0.0012951532102253
  0
VERTEX
  5
1241
330
931
100
AcDbEntity
  8
0
100
AcDbVertex
100
AcDb2dVertex
 10
1127.411330509305
 20
1921.138716963061
 30
0.0
 42
-0.2058592184608241
  0
VERTEX
  5
1242
330
931
100
AcDbEntity
  8
0
100
AcDbVertex
100
AcDb2dVertex
 10
1083.300314362972
 20
1895.825213692146
 30
0.0
 42
-0.1341359207131776
  0
VERTEX
  5
1243
330
931
100
AcDbEntity
  8
0
100
AcDbVertex
100
AcDb2dVertex
 10
1063.028339418297
 20
1898.121712152887
 30
0.0
 42
-0.191657753708208
  0
VERTEX
  5
1244
330
931
100
AcDbEntity
  8
0
100
AcDbVertex
100
AcDb2dVertex
 10
1045.98431177638
 20
1916.935451566945
 30
0.0
 42
-0.1922198375784933
  0
VERTEX
  5
1245
330
931
100
AcDbEntity
  8
0
100
AcDbVertex
100
AcDb2dVertex
 10
1046.569381904903
 20
1942.384011623041
 30
0.0
 42
-0.1992749000703641
  0
VERTEX
  5
1246
330
931
100
AcDbEntity
  8
0
100
AcDbVertex
100
AcDb2dVertex
 10
1061.661830805884
 20
1956.401525567202
 30
0.0
 42
-0.5686187013007468
  0
VERTEX
  5
1247
330
931
100
AcDbEntity
  8
0
100
AcDbVertex
100
AcDb2dVertex
 10
1091.786542427657
 20
1933.457610950147
 30
0.0
 42
-0.6299623432345883
  0
VERTEX
  5
1248
330
931
100
AcDbEntity
  8
0
100
AcDbVertex
100
AcDb2dVertex
 10
1072.677353260417
 20
1926.780115968941
 30
0.0
  0
SEQEND
  5
1249
330
931
100
AcDbEntity
  8
0
  0
POLYLINE
  5
932
330
1F
100
AcDbEntity
  8
0
100
AcDb2dPolyline
 66
     1
 10
0.0
 20
0.0
 30
0.0
  0
VERTEX
  5
124A
330
932
100
AcDbEntity
  8
0
100
AcDbVertex
100
AcDb2dVertex
 10
1601.251497984327
 20
1928.028212088216
 30
0.0
 42
-0.5681703081661911
  0
VERTEX
  5
124B
330
932
100
AcDbEntity
  8
0
100
AcDbVertex
100
AcDb2dVertex
 10
1588.621348546744
 20
1934.971896265377
 30
0.0
 42
-0.5532156458823683
  0
VERTEX
  5
124C
330
932
100
AcDbEntity
  8
0
100
AcDbVertex
100
AcDb2dVertex
 10
1610.692205957807
 20
1950.805415978891
 30
0.0
 42
-0.1993792027840673
  0
VERTEX
  5
124D
330
932
100
AcDbEntity
  8
0
100
AcDbVertex
100
AcDb2dVertex
 10
1622.462245315774
 20
1939.958847504279
 30
0.0
 42
-0.1914771830390936
  0
VERTEX
  5
124E
330
932
100
AcDbEntity
  8
0
100
AcDbVertex
100
AcDb2dVertex
 10
1622.914548156048
 20
1919.032754384316
 30
0.0
 42
-0.1895550521567916
  0
VERTEX
  5
124F
330
932
100
AcDbEntity
  8
0
100
AcDbVertex
100
AcDb2dVertex
 10
1609.054494107453
 20
1903.610026995329
 30
0.0
 42
-0.1332316775572203
  0
VERTEX
  5
1250
330
932
100
AcDbEntity
  8
0
100
AcDbVertex
100
AcDb2dVertex
 10
1592.026264066288
 20
1901.772113364456
 30
0.0
 42
-0.2260302080757815
  0
VERTEX
  5
1251
330
932
100
AcDbEntity
  8
0
100
AcDbVertex
100
AcDb2dVertex
 10
1549.412120239509
 20
1928.339842724867
 30
0.0
 42
0.0013057695843325
  0
VERTEX
  5
1252
330
932
100
AcDbEntity
  8
0
100
AcDbVertex
100
AcDb2dVertex
 10
1487.799446213516
 20
2016.514800110238
 30
0.0
 42
0.3387323095208476
  0
VERTEX
  5
1253
330
932
100
AcDbEntity
  8
0
100
AcDbVertex
100
AcDb2dVertex
 10
1404.729855269861
 20
2039.122065170953
 30
0.0
 42
0.5089655870146698
  0
VERTEX
  5
1254
330
932
100
AcDbEntity
  8
0
100
AcDbVertex
100
AcDb2dVertex
 10
1383.436861011491
 20
1954.272995282367
 30
0.0
 42
0.4306247850875072
  0
VERTEX
  5
1255
330
932
100
AcDbEntity
  8
0
100
AcDbVertex
100
AcDb2dVertex
 10
1431.754847924143
 20
1951.437304032808
 30
0.0
 42
0.5168666234664843
  0
VERTEX
  5
1256
330
932
100
AcDbEntity
  8
0
100
AcDbVertex
100
AcDb2dVertex
 10
1426.292219020017
 20
1992.167719456486
 30
0.0
 42
0.560297429427331
  0
VERTEX
  5
1257
330
932
100
AcDbEntity
  8
0
100
AcDbVertex
100
AcDb2dVertex
 10
1401.76071784114
 20
1978.518972845186
 30
0.0
  0
SEQEND
  5
1258
330
932
100
AcDbEntity
  8
0
  0
POLYLINE
  5
933
330
1F
100
AcDbEntity
  8
0
100
AcDb2dPolyline
 66
     1
 10
0.0
 20
0.0
 30
0.0
  0
VERTEX
  5
1259
330
933
100
AcDbEntity
  8
0
100
AcDbVertex
100
AcDb2dVertex
 10
1404.734946425146
 20
1978.918712039593
 30
0.0
 42
-0.4819053559130675
  0
VERTEX
  5
125A
330
933
100
AcDbEntity
  8
0
100
AcDbVertex
100
AcDb2dVertex
 10
1421.766341361912
 20
1987.659182579097
 30
0.0
 42
-0.5491356692612987
  0
VERTEX
  5
125B
330
933
100
AcDbEntity
  8
0
100
AcDbVertex
100
AcDb2dVertex
 10
1427.654996192352
 20
1955.81810965221
 30
0.0
 42
-0.435841273813761
  0
VERTEX
  5
125C
330
933
100
AcDbEntity
  8
0
100
AcDbVertex
100
AcDb2dVertex
 10
1387.733486824413
 20
1958.492418594111
 30
0.0
 42
-0.4947152888906587
  0
VERTEX
  5
125D
330
933
100
AcDbEntity
  8
0
100
AcDbVertex
100
AcDb2dVertex
 10
1405.404105515878
 20
2032.891850399511
 30
0.0
 42
-0.3689729359188904
  0
VERTEX
  5
125E
330
933
100
AcDbEntity
  8
0
100
AcDbVertex
100
AcDb2dVertex
 10
1486.036486251107
 20
2008.586245647794
 30
0.0
 42
-0.0012951532102253
  0
VERTEX
  5
125F
330
933
100
AcDbEntity
  8
0
100
AcDbVertex
100
AcDb2dVertex
 10
1547.109034922651
 20
1921.138716963061
 30
0.0
 42
0.2058592184608241
  0
VERTEX
  5
1260
330
933
100
AcDbEntity
  8
0
100
AcDbVertex
100
AcDb2dVertex
 10
1591.220051068984
 20
1895.825213692146
 30
0.0
 42
0.1341359207131776
  0
VERTEX
  5
1261
330
933
100
AcDbEntity
  8
0
100
AcDbVertex
100
AcDb2dVertex
 10
1611.492026013659
 20
1898.121712152887
 30
0.0
 42
0.191657753708208
  0
VERTEX
  5
1262
330
933
100
AcDbEntity
  8
0
100
AcDbVertex
100
AcDb2dVertex
 10
1628.536053655577
 20
1916.935451566945
 30
0.0
 42
0.1922198375784933
  0
VERTEX
  5
1263
330
933
100
AcDbEntity
  8
0
100
AcDbVertex
100
AcDb2dVertex
 10
1627.950983527053
 20
1942.384011623041
 30
0.0
 42
0.1992749000703641
  0
VERTEX
  5
1264
330
933
100
AcDbEntity
  8
0
100
AcDbVertex
100
AcDb2dVertex
 10
1612.858534626072
 20
1956.401525567202
 30
0.0
 42
0.5686187013007468
  0
VERTEX
  5
1265
330
933
100
AcDbEntity
  8
0
100
AcDbVertex
100
AcDb2dVertex
 10
1582.733823004299
 20
1933.457610950147
 30
0.0
 42
0.6299623432345883
  0
VERTEX
  5
1266
330
933
100
AcDbEntity
  8
0
100
AcDbVertex
100
AcDb2dVertex
 10
1601.843012171539
 20
1926.780115968941
 30
0.0
  0
SEQEND
  5
1267
330
933
100
AcDbEntity
  8
0
  0
LINE
  5
934
330
1F
100
AcDbEntity
  8
0
100
AcDbLine
 10
1304.760182715978
 20
1945.181201148742
 30
0.0
 11
1304.760182715976
 21
2045.996307667838
 31
0.0
  0
LINE
  5
935
330
1F
100
AcDbEntity
  8
0
100
AcDbLine
 10
1369.760182715983
 20
1945.181201148742
 30
0.0
 11
1369.760182715982
 21
2045.996307667838
 31
0.0
  0
ARC
  5
936
330
1F
100
AcDbEntity
  8
0
  6
CONTINUOUS
100
AcDbCircle
 10
1337.260182715978
 20
1301.501156406015
 30
0.0
 40
644.5
100
AcDbArc
 50
92.89046224632228
 51
123.2711768833606
  0
ARC
  5
937
330
1F
100
AcDbEntity
  8
0
  6
CONTINUOUS
100
AcDbCircle
 10
1337.260182715978
 20
1301.501156406015
 30
0.0
 40
614.5
100
AcDbArc
 50
56.65180345086673
 51
86.96829610319428
  0
ARC
  5
938
330
1F
100
AcDbEntity
  8
0
100
AcDbCircle
 10
1251.888889561815
 20
1813.539359199588
 30
0.0
 40
57.11966942967778
100
AcDbArc
 50
337.7625217859816
 51
22.23747821401841
  0
ARC
  5
939
330
1F
100
AcDbEntity
  8
0
100
AcDbCircle
 10
1286.888889561815
 20
1813.539359199588
 30
0.0
 40
57.11966942967778
100
AcDbArc
 50
337.7625217859816
 51
22.23747821401841
  0
ARC
  5
93A
330
1F
100
AcDbEntity
  8
0
100
AcDbCircle
 10
1267.856590518001
 20
1721.592022841898
 30
0.0
 40
74.24670187285427
100
AcDbArc
 50
345.5674138149892
 51
14.43258618501076
  0
ARC
  5
93B
330
1F
100
AcDbEntity
  8
0
100
AcDbCircle
 10
1382.474445077264
 20
1721.592022841898
 30
0.0
 40
51.17711403260225
100
AcDbArc
 50
158.8019222469722
 51
201.1980777530278
  0
ARC
  5
93C
330
1F
100
AcDbEntity
  8
0
100
AcDbCircle
 10
1417.474445077264
 20
1721.592022841898
 30
0.0
 40
51.17711403260225
100
AcDbArc
 50
158.8019222469722
 51
201.1980777530278
  0
ARC
  5
93D
330
1F
100
AcDbEntity
  8
0
100
AcDbCircle
 10
1232.856590518001
 20
1721.592022841898
 30
0.0
 40
74.24670187285427
100
AcDbArc
 50
345.5674138149892
 51
14.43258618501076
  0
LINE
  5
93E
330
1F
100
AcDbEntity
  8
0
100
AcDbLine
 10
1344.307376034609
 20
1695.608075392012
 30
0.0
 11
1362.743880529044
 21
1694.621098381325
 31
0.0
  0
LINE
  5
93F
330
1F
100
AcDbEntity
  8
0
100
AcDbLine
 10
1364.719205716109
 20
1692.647144359955
 30
0.0
 11
1344.307376034609
 21
1692.647144359955
 31
0.0
  0
LINE
  5
940
330
1F
100
AcDbEntity
  8
0
100
AcDbLine
 10
1343.978485654582
 20
1721.635592705645
 30
0.0
 11
1364.719536200588
 21
1721.306604183639
 31
0.0
  0
LINE
  5
941
330
1F
100
AcDbEntity
  8
0
100
AcDbLine
 10
1364.06109447157
 20
1720.319627172954
 30
0.0
 11
1344.636927383603
 21
1719.332650162267
 31
0.0
  0
LINE
  5
942
330
1F
100
AcDbEntity
  8
0
100
AcDbLine
 10
1309.307376034609
 20
1695.608075392012
 30
0.0
 11
1327.743880529044
 21
1694.621098381325
 31
0.0
  0
LINE
  5
943
330
1F
100
AcDbEntity
  8
0
100
AcDbLine
 10
1329.719205716108
 20
1692.647144359955
 30
0.0
 11
1309.307376034609
 21
1692.647144359955
 31
0.0
  0
LINE
  5
944
330
1F
100
AcDbEntity
  8
0
100
AcDbLine
 10
1308.978485654582
 20
1721.635592705645
 30
0.0
 11
1329.719536200588
 21
1721.306604183639
 31
0.0
  0
LINE
  5
945
330
1F
100
AcDbEntity
  8
0
100
AcDbLine
 10
1329.06109447157
 20
1720.319627172954
 30
0.0
 11
1309.636927383603
 21
1719.332650162267
 31
0.0
  0
LINE
  5
946
330
1F
100
AcDbEntity
  8
0
100
AcDbLine
 10
1363.940409314976
 20
1658.37875432396
 30
0.0
 11
1343.694599484847
 21
1659.365662666618
 31
0.0
  0
LINE
  5
947
330
1F
100
AcDbEntity
  8
0
100
AcDbLine
 10
1344.682203757588
 20
1662.326376249921
 30
0.0
 11
1363.446626618869
 21
1659.365662666618
 31
0.0
  0
LINE
  5
948
330
1F
100
AcDbEntity
  8
0
100
AcDbLine
 10
1309.682203757588
 20
1662.326376249921
 30
0.0
 11
1328.446626618869
 21
1659.365662666618
 31
0.0
  0
LINE
  5
949
330
1F
100
AcDbEntity
  8
0
100
AcDbLine
 10
1328.940409314975
 20
1658.37875432396
 30
0.0
 11
1308.694599484847
 21
1659.365662666618
 31
0.0
  0
LINE
  5
94A
330
1F
100
AcDbEntity
  8
0
100
AcDbLine
 10
1368.012191971757
 20
1788.377745718659
 30
0.0
 11
1350.263445123892
 21
1786.035227501828
 31
0.0
  0
LINE
  5
94B
330
1F
100
AcDbEntity
  8
0
100
AcDbLine
 10
1350.933220526608
 20
1784.696635853921
 30
0.0
 11
1368.012191971757
 21
1785.031289488234
 31
0.0
  0
ARC
  5
94C
330
1F
100
AcDbEntity
  8
0
100
AcDbCircle
 10
1300.178583220404
 20
1766.00997679073
 30
0.0
 40
47.3092865871033
100
AcDbArc
 50
326.7886702846587
 51
33.21132971534122
  0
ARC
  5
94D
330
1F
100
AcDbEntity
  8
0
100
AcDbCircle
 10
1265.178583220404
 20
1766.00997679073
 30
0.0
 40
47.3092865871033
100
AcDbArc
 50
326.7886702846587
 51
33.21132971534122
  0
LINE
  5
94E
330
1F
100
AcDbEntity
  8
0
100
AcDbLine
 10
1333.012191971757
 20
1788.377745718659
 30
0.0
 11
1315.263445123892
 21
1786.035227501828
 31
0.0
  0
LINE
  5
94F
330
1F
100
AcDbEntity
  8
0
100
AcDbLine
 10
1315.933220526608
 20
1784.696635853921
 30
0.0
 11
1333.012191971757
 21
1785.031289488234
 31
0.0
  0
POLYLINE
  5
950
330
1F
100
AcDbEntity
  8
0
100
AcDb2dPolyline
 66
     1
 10
0.0
 20
0.0
 30
0.0
  0
VERTEX
  5
1268
330
950
100
AcDbEntity
  8
0
100
AcDbVertex
100
AcDb2dVertex
 10
1244.940957450572
 20
1885.839689770842
 30
0.0
 42
-0.7261678006308835
  0
VERTEX
  5
1269
330
950
100
AcDbEntity
  8
0
100
AcDbVertex
100
AcDb2dVertex
 10
1252.582185002763
 20
1874.405066184526
 30
0.0
 42
-0.5304465470200191
  0
VERTEX
  5
126A
330
950
100
AcDbEntity
  8
0
100
AcDbVertex
100
AcDb2dVertex
 10
1229.563960534957
 20
1881.614959459164
 30
0.0
 42
-0.2013805755683081
  0
VERTEX
  5
126B
330
950
100
AcDbEntity
  8
0
100
AcDbVertex
100
AcDb2dVertex
 10
1229.738881711174
 20
1892.00906888393
 30
0.0
 42
-0.1902567765406998
  0
VERTEX
  5
126C
330
950
100
AcDbEntity
  8
0
100
AcDbVertex
100
AcDb2dVertex
 10
1239.907803689681
 20
1901.377087376843
 30
0.0
 42
-0.0778313275902115
  0
VERTEX
  5
126D
330
950
100
AcDbEntity
  8
0
100
AcDbVertex
100
AcDb2dVertex
 10
1256.701639307472
 20
1904.513146368906
 30
0.0
 42
-0.2285481872617097
  0
VERTEX
  5
126E
330
950
100
AcDbEntity
  8
0
100
AcDbVertex
100
AcDb2dVertex
 10
1288.397733675967
 20
1884.726668394099
 30
0.0
 42
-0.0594209396267578
  0
VERTEX
  5
126F
330
950
100
AcDbEntity
  8
0
100
AcDbVertex
100
AcDb2dVertex
 10
1295.070079327892
 20
1872.553861767091
 30
0.0
 42
-0.0594209396267578
  0
SEQEND
  5
1270
330
950
100
AcDbEntity
  8
0
  0
POLYLINE
  5
951
330
1F
100
AcDbEntity
  8
0
100
AcDb2dPolyline
 66
     1
 10
0.0
 20
0.0
 30
0.0
  0
VERTEX
  5
1271
330
951
100
AcDbEntity
  8
0
100
AcDbVertex
100
AcDb2dVertex
 10
1244.481868240923
 20
1887.865793315241
 30
0.0
 42
-0.8476842014660734
  0
VERTEX
  5
1272
330
951
100
AcDbEntity
  8
0
100
AcDbVertex
100
AcDb2dVertex
 10
1256.400583502875
 20
1869.776030954903
 30
0.0
 42
-0.527993460888276
  0
VERTEX
  5
1273
330
951
100
AcDbEntity
  8
0
100
AcDbVertex
100
AcDb2dVertex
 10
1223.89548076668
 20
1879.635563636501
 30
0.0
 42
-0.1992749000703595
  0
VERTEX
  5
1274
330
951
100
AcDbEntity
  8
0
100
AcDbVertex
100
AcDb2dVertex
 10
1224.29129288046
 20
1894.525465754284
 30
0.0
 42
-0.1922899288213652
  0
VERTEX
  5
1275
330
951
100
AcDbEntity
  8
0
100
AcDbVertex
100
AcDb2dVertex
 10
1237.830146112258
 20
1907.006416904644
 30
0.0
 42
-0.0798582902643633
  0
VERTEX
  5
1276
330
951
100
AcDbEntity
  8
0
100
AcDbVertex
100
AcDb2dVertex
 10
1256.937505263617
 20
1910.521236115966
 30
0.0
 42
-0.2298664334935605
  0
VERTEX
  5
1277
330
951
100
AcDbEntity
  8
0
100
AcDbVertex
100
AcDb2dVertex
 10
1293.378586078918
 20
1888.075845694978
 30
0.0
 42
-0.0587651015535746
  0
VERTEX
  5
1278
330
951
100
AcDbEntity
  8
0
100
AcDbVertex
100
AcDb2dVertex
 10
1300.636019579648
 20
1874.794466398418
 30
0.0
  0
SEQEND
  5
1279
330
951
100
AcDbEntity
  8
0
  0
ARC
  5
952
330
1F
100
AcDbEntity
  8
0
  6
CONTINUOUS
100
AcDbCircle
 10
1337.260182715978
 20
1301.501156406015
 30
0.0
 40
614.5
100
AcDbArc
 50
93.03170389680571
 51
123.3481965491332
  0
LINE
  5
953
330
1F
100
AcDbEntity
  8
0
100
AcDbLine
 10
1072.677353260417
 20
1926.780115968941
 30
0.0
 11
1073.268867447629
 21
1928.028212088216
 31
0.0
  0
POLYLINE
  5
954
330
1F
100
AcDbEntity
  8
0
100
AcDb2dPolyline
 66
     1
 10
0.0
 20
0.0
 30
0.0
  0
VERTEX
  5
127A
330
954
100
AcDbEntity
  8
0
100
AcDbVertex
100
AcDb2dVertex
 10
1429.579407981384
 20
1885.839689770842
 30
0.0
 42
0.7261678006308835
  0
VERTEX
  5
127B
330
954
100
AcDbEntity
  8
0
100
AcDbVertex
100
AcDb2dVertex
 10
1421.938180429194
 20
1874.405066184526
 30
0.0
 42
0.5304465470200191
  0
VERTEX
  5
127C
330
954
100
AcDbEntity
  8
0
100
AcDbVertex
100
AcDb2dVertex
 10
1444.956404896999
 20
1881.614959459164
 30
0.0
 42
0.2013805755683081
  0
VERTEX
  5
127D
330
954
100
AcDbEntity
  8
0
100
AcDbVertex
100
AcDb2dVertex
 10
1444.781483720783
 20
1892.00906888393
 30
0.0
 42
0.1902567765406998
  0
VERTEX
  5
127E
330
954
100
AcDbEntity
  8
0
100
AcDbVertex
100
AcDb2dVertex
 10
1434.612561742275
 20
1901.377087376843
 30
0.0
 42
0.0778313275902115
  0
VERTEX
  5
127F
330
954
100
AcDbEntity
  8
0
100
AcDbVertex
100
AcDb2dVertex
 10
1417.818726124484
 20
1904.513146368906
 30
0.0
 42
0.2285481872617097
  0
VERTEX
  5
1280
330
954
100
AcDbEntity
  8
0
100
AcDbVertex
100
AcDb2dVertex
 10
1386.122631755989
 20
1884.726668394099
 30
0.0
 42
0.0594209396267578
  0
VERTEX
  5
1281
330
954
100
AcDbEntity
  8
0
100
AcDbVertex
100
AcDb2dVertex
 10
1379.450286104064
 20
1872.553861767091
 30
0.0
 42
0.0594209396267578
  0
SEQEND
  5
1282
330
954
100
AcDbEntity
  8
0
  0
POLYLINE
  5
955
330
1F
100
AcDbEntity
  8
0
100
AcDb2dPolyline
 66
     1
 10
0.0
 20
0.0
 30
0.0
  0
VERTEX
  5
1283
330
955
100
AcDbEntity
  8
0
100
AcDbVertex
100
AcDb2dVertex
 10
1430.038497191034
 20
1887.865793315241
 30
0.0
 42
0.8476842014660734
  0
VERTEX
  5
1284
330
955
100
AcDbEntity
  8
0
100
AcDbVertex
100
AcDb2dVertex
 10
1418.119781929081
 20
1869.776030954903
 30
0.0
 42
0.527993460888276
  0
VERTEX
  5
1285
330
955
100
AcDbEntity
  8
0
100
AcDbVertex
100
AcDb2dVertex
 10
1450.624884665276
 20
1879.635563636501
 30
0.0
 42
0.1992749000703595
  0
VERTEX
  5
1286
330
955
100
AcDbEntity
  8
0
100
AcDbVertex
100
AcDb2dVertex
 10
1450.229072551496
 20
1894.525465754284
 30
0.0
 42
0.1922899288213652
  0
VERTEX
  5
1287
330
955
100
AcDbEntity
  8
0
100
AcDbVertex
100
AcDb2dVertex
 10
1436.690219319699
 20
1907.006416904644
 30
0.0
 42
0.0798582902643633
  0
VERTEX
  5
1288
330
955
100
AcDbEntity
  8
0
100
AcDbVertex
100
AcDb2dVertex
 10
1417.582860168339
 20
1910.521236115966
 30
0.0
 42
0.2298664334935605
  0
VERTEX
  5
1289
330
955
100
AcDbEntity
  8
0
100
AcDbVertex
100
AcDb2dVertex
 10
1381.141779353038
 20
1888.075845694978
 30
0.0
 42
0.0587651015535746
  0
VERTEX
  5
128A
330
955
100
AcDbEntity
  8
0
100
AcDbVertex
100
AcDb2dVertex
 10
1373.884345852308
 20
1874.794466398418
 30
0.0
  0
SEQEND
  5
128B
330
955
100
AcDbEntity
  8
0
  0
ARC
  5
956
330
1F
100
AcDbEntity
  8
0
100
AcDbCircle
 10
1237.782423222994
 20
1895.556983984332
 30
0.0
 40
106.6116003211486
100
AcDbArc
 50
343.0452386242168
 51
16.9547613757832
  0
ARC
  5
957
330
1F
100
AcDbEntity
  8
0
100
AcDbCircle
 10
1241.379450596262
 20
1889.804196403604
 30
0.0
 40
68.25742961928447
100
AcDbArc
 50
338.2105719721151
 51
21.78942802793321
  0
LINE
  5
958
330
1F
100
AcDbEntity
  8
0
100
AcDbLine
 10
1368.123954047344
 20
1867.444024383583
 30
0.0
 11
1351.128750698161
 21
1866.028753437777
 31
0.0
  0
LINE
  5
959
330
1F
100
AcDbEntity
  8
0
100
AcDbLine
 10
1349.240401250562
 20
1868.387534532565
 30
0.0
 11
1367.179779323546
 21
1868.85929532939
 31
0.0
  0
LINE
  5
95A
330
1F
100
AcDbEntity
  8
0
100
AcDbLine
 10
1266.48293682644
 20
1829.434750312876
 30
0.0
 11
1267.491330804087
 21
1827.618435345456
 31
0.0
  0
POLYLINE
  5
95B
330
1F
100
AcDbEntity
  8
0
100
AcDb2dPolyline
 66
     1
 10
0.0
 20
0.0
 30
0.0
  0
VERTEX
  5
128C
330
95B
100
AcDbEntity
  8
0
100
AcDbVertex
100
AcDb2dVertex
 10
1267.491330804087
 20
1827.618435345456
 30
0.0
 42
0.8476842014660734
  0
VERTEX
  5
128D
330
95B
100
AcDbEntity
  8
0
100
AcDbVertex
100
AcDb2dVertex
 10
1264.317025373434
 20
1849.047832462076
 30
0.0
 42
0.527993460888276
  0
VERTEX
  5
128E
330
95B
100
AcDbEntity
  8
0
100
AcDbVertex
100
AcDb2dVertex
 10
1246.659668489674
 20
1820.030426711913
 30
0.0
 42
0.1992749000703595
  0
VERTEX
  5
128F
330
95B
100
AcDbEntity
  8
0
100
AcDbVertex
100
AcDb2dVertex
 10
1256.88035530284
 20
1809.195141142359
 30
0.0
 42
0.1922899288213652
  0
VERTEX
  5
1290
330
95B
100
AcDbEntity
  8
0
100
AcDbVertex
100
AcDb2dVertex
 10
1275.292230817894
 20
1808.916701798994
 30
0.0
 42
0.0798582902643633
  0
VERTEX
  5
1291
330
95B
100
AcDbEntity
  8
0
100
AcDbVertex
100
AcDb2dVertex
 10
1291.878101880613
 20
1819.0337176099
 30
0.0
 42
0.2298664334935605
  0
VERTEX
  5
1292
330
95B
100
AcDbEntity
  8
0
100
AcDbVertex
100
AcDb2dVertex
 10
1304.079628366161
 20
1860.056524358834
 30
0.0
 42
0.0587651015535746
  0
VERTEX
  5
1293
330
95B
100
AcDbEntity
  8
0
100
AcDbVertex
100
AcDb2dVertex
 10
1300.636019579648
 20
1874.794466398418
 30
0.0
  0
SEQEND
  5
1294
330
95B
100
AcDbEntity
  8
0
  0
POLYLINE
  5
95C
330
1F
100
AcDbEntity
  8
0
100
AcDb2dPolyline
 66
     1
 10
0.0
 20
0.0
 30
0.0
  0
VERTEX
  5
1295
330
95C
100
AcDbEntity
  8
0
100
AcDbVertex
100
AcDb2dVertex
 10
1266.48293682644
 20
1829.434750312876
 30
0.0
 42
0.7261678006308835
  0
VERTEX
  5
1296
330
95C
100
AcDbEntity
  8
0
100
AcDbVertex
100
AcDb2dVertex
 10
1264.556464943829
 20
1843.05193361746
 30
0.0
 42
0.5304465470200191
  0
VERTEX
  5
1297
330
95C
100
AcDbEntity
  8
0
100
AcDbVertex
100
AcDb2dVertex
 10
1252.204499953798
 20
1822.333579928832
 30
0.0
 42
0.2013805755683081
  0
VERTEX
  5
1298
330
95C
100
AcDbEntity
  8
0
100
AcDbVertex
100
AcDb2dVertex
 10
1259.263625888523
 20
1814.702272754465
 30
0.0
 42
0.1902567765406998
  0
VERTEX
  5
1299
330
95C
100
AcDbEntity
  8
0
100
AcDbVertex
100
AcDb2dVertex
 10
1273.088420885301
 20
1814.497851655663
 30
0.0
 42
0.0778313275902115
  0
VERTEX
  5
129A
330
95C
100
AcDbEntity
  8
0
100
AcDbVertex
100
AcDb2dVertex
 10
1287.697277715635
 20
1823.355000343014
 30
0.0
 42
0.2285481872617097
  0
VERTEX
  5
129B
330
95C
100
AcDbEntity
  8
0
100
AcDbVertex
100
AcDb2dVertex
 10
1298.134264166247
 20
1859.232798807995
 30
0.0
 42
0.0594209396267578
  0
VERTEX
  5
129C
330
95C
100
AcDbEntity
  8
0
100
AcDbVertex
100
AcDb2dVertex
 10
1294.993500066432
 20
1872.754374845817
 30
0.0
 42
0.0594209396267578
  0
SEQEND
  5
129D
330
95C
100
AcDbEntity
  8
0
  0
LINE
  5
95D
330
1F
100
AcDbEntity
  8
0
100
AcDbLine
 10
1344.525690195133
 20
1818.337674990056
 30
0.0
 11
1363.881330353816
 21
1819.752945935863
 31
0.0
  0
ARC
  5
95E
330
1F
100
AcDbEntity
  8
0
100
AcDbCircle
 10
1300.834946868487
 20
1849.811682777175
 30
0.0
 40
41.59279291423044
100
AcDbArc
 50
339.3683311470979
 51
20.63166885290214
  0
ARC
  5
95F
330
1F
100
AcDbEntity
  8
0
100
AcDbCircle
 10
1357.997260461991
 20
1849.811682777175
 30
0.0
 40
27.47268131795497
100
AcDbArc
 50
147.7604243756004
 51
212.2395756243995
  0
LINE
  5
960
330
1F
100
AcDbEntity
  8
0
100
AcDbLine
 10
1344.755882356731
 20
1846.463172228246
 30
0.0
 11
1362.48695800496
 21
1846.463172228246
 31
0.0
  0
ARC
  5
961
330
1F
100
AcDbEntity
  8
0
100
AcDbCircle
 10
1265.834946868487
 20
1849.811682777175
 30
0.0
 40
41.59279291423044
100
AcDbArc
 50
339.3683311470979
 51
20.63166885290214
  0
LINE
  5
962
330
1F
100
AcDbEntity
  8
0
100
AcDbLine
 10
1309.525690195133
 20
1818.337674990056
 30
0.0
 11
1328.881330353816
 21
1819.752945935863
 31
0.0
  0
LINE
  5
963
330
1F
100
AcDbEntity
  8
0
100
AcDbLine
 10
1333.123954047344
 20
1867.444024383583
 30
0.0
 11
1316.128750698161
 21
1866.028753437777
 31
0.0
  0
LINE
  5
964
330
1F
100
AcDbEntity
  8
0
100
AcDbLine
 10
1314.240401250562
 20
1868.387534532565
 30
0.0
 11
1332.179779323546
 21
1868.85929532939
 31
0.0
  0
LINE
  5
965
330
1F
100
AcDbEntity
  8
0
100
AcDbLine
 10
1309.755882356731
 20
1846.463172228246
 30
0.0
 11
1327.48695800496
 21
1846.463172228246
 31
0.0
  0
LINE
  5
966
330
1F
100
AcDbEntity
  8
0
100
AcDbLine
 10
1408.037428605516
 20
1829.434750312876
 30
0.0
 11
1407.029034627869
 21
1827.618435345456
 31
0.0
  0
POLYLINE
  5
967
330
1F
100
AcDbEntity
  8
0
100
AcDb2dPolyline
 66
     1
 10
0.0
 20
0.0
 30
0.0
  0
VERTEX
  5
129E
330
967
100
AcDbEntity
  8
0
100
AcDbVertex
100
AcDb2dVertex
 10
1407.029034627869
 20
1827.618435345456
 30
0.0
 42
-0.8476842014660734
  0
VERTEX
  5
129F
330
967
100
AcDbEntity
  8
0
100
AcDbVertex
100
AcDb2dVertex
 10
1410.203340058523
 20
1849.047832462076
 30
0.0
 42
-0.527993460888276
  0
VERTEX
  5
12A0
330
967
100
AcDbEntity
  8
0
100
AcDbVertex
100
AcDb2dVertex
 10
1427.860696942282
 20
1820.030426711913
 30
0.0
 42
-0.1992749000703595
  0
VERTEX
  5
12A1
330
967
100
AcDbEntity
  8
0
100
AcDbVertex
100
AcDb2dVertex
 10
1417.640010129117
 20
1809.195141142359
 30
0.0
 42
-0.1922899288213652
  0
VERTEX
  5
12A2
330
967
100
AcDbEntity
  8
0
100
AcDbVertex
100
AcDb2dVertex
 10
1399.228134614063
 20
1808.916701798994
 30
0.0
 42
-0.0798582902643633
  0
VERTEX
  5
12A3
330
967
100
AcDbEntity
  8
0
100
AcDbVertex
100
AcDb2dVertex
 10
1382.642263551343
 20
1819.0337176099
 30
0.0
 42
-0.2298664334935605
  0
VERTEX
  5
12A4
330
967
100
AcDbEntity
  8
0
100
AcDbVertex
100
AcDb2dVertex
 10
1370.440737065796
 20
1860.056524358834
 30
0.0
 42
-0.0587651015535746
  0
VERTEX
  5
12A5
330
967
100
AcDbEntity
  8
0
100
AcDbVertex
100
AcDb2dVertex
 10
1373.884345852308
 20
1874.794466398418
 30
0.0
  0
SEQEND
  5
12A6
330
967
100
AcDbEntity
  8
0
  0
POLYLINE
  5
968
330
1F
100
AcDbEntity
  8
0
100
AcDb2dPolyline
 66
     1
 10
0.0
 20
0.0
 30
0.0
  0
VERTEX
  5
12A7
330
968
100
AcDbEntity
  8
0
100
AcDbVertex
100
AcDb2dVertex
 10
1408.037428605516
 20
1829.434750312876
 30
0.0
 42
-0.7261678006308835
  0
VERTEX
  5
12A8
330
968
100
AcDbEntity
  8
0
100
AcDbVertex
100
AcDb2dVertex
 10
1409.963900488127
 20
1843.05193361746
 30
0.0
 42
-0.5304465470200191
  0
VERTEX
  5
12A9
330
968
100
AcDbEntity
  8
0
100
AcDbVertex
100
AcDb2dVertex
 10
1422.315865478158
 20
1822.333579928832
 30
0.0
 42
-0.2013805755683081
  0
VERTEX
  5
12AA
330
968
100
AcDbEntity
  8
0
100
AcDbVertex
100
AcDb2dVertex
 10
1415.256739543433
 20
1814.702272754465
 30
0.0
 42
-0.1902567765406998
  0
VERTEX
  5
12AB
330
968
100
AcDbEntity
  8
0
100
AcDbVertex
100
AcDb2dVertex
 10
1401.431944546656
 20
1814.497851655663
 30
0.0
 42
-0.0778313275902115
  0
VERTEX
  5
12AC
330
968
100
AcDbEntity
  8
0
100
AcDbVertex
100
AcDb2dVertex
 10
1386.823087716321
 20
1823.355000343014
 30
0.0
 42
-0.2285481872617097
  0
VERTEX
  5
12AD
330
968
100
AcDbEntity
  8
0
100
AcDbVertex
100
AcDb2dVertex
 10
1376.386101265709
 20
1859.232798807995
 30
0.0
 42
-0.0594209396267578
  0
VERTEX
  5
12AE
330
968
100
AcDbEntity
  8
0
100
AcDbVertex
100
AcDb2dVertex
 10
1379.526865365524
 20
1872.754374845817
 30
0.0
 42
-0.0594209396267578
  0
SEQEND
  5
12AF
330
968
100
AcDbEntity
  8
0
  0
ARC
  5
969
330
1F
100
AcDbEntity
  8
0
100
AcDbCircle
 10
1392.997260461991
 20
1849.811682777175
 30
0.0
 40
27.47268131795497
100
AcDbArc
 50
147.7604243756004
 51
212.2395756243995
  0
LINE
  5
96A
330
1F
100
AcDbEntity
  8
0
100
AcDbLine
 10
1346.144150462809
 20
1893.858280030743
 30
0.0
 11
1368.436534046192
 21
1893.256210206173
 31
0.0
  0
LINE
  5
96B
330
1F
100
AcDbEntity
  8
0
100
AcDbLine
 10
1366.629036655013
 20
1895.062419679885
 30
0.0
 11
1346.144150462809
 21
1898.674861516653
 31
0.0
  0
LINE
  5
96C
330
1F
100
AcDbEntity
  8
0
100
AcDbLine
 10
1349.240401250562
 20
1962.557239644037
 30
0.0
 11
1367.179779323546
 21
1963.029000440862
 31
0.0
  0
LINE
  5
96D
330
1F
100
AcDbEntity
  8
0
100
AcDbLine
 10
1368.123954047344
 20
1961.613729495055
 30
0.0
 11
1351.128750698161
 21
1960.198458549248
 31
0.0
  0
LINE
  5
96E
330
1F
100
AcDbEntity
  8
0
100
AcDbLine
 10
1244.940957450572
 20
1885.839689770842
 30
0.0
 11
1244.481868240923
 21
1887.865793315241
 31
0.0
  0
LINE
  5
96F
330
1F
100
AcDbEntity
  8
0
100
AcDbLine
 10
1311.144150462809
 20
1893.858280030743
 30
0.0
 11
1333.436534046192
 21
1893.256210206173
 31
0.0
  0
LINE
  5
970
330
1F
100
AcDbEntity
  8
0
100
AcDbLine
 10
1331.629036655013
 20
1895.062419679885
 30
0.0
 11
1311.144150462809
 21
1898.674861516653
 31
0.0
  0
LINE
  5
971
330
1F
100
AcDbEntity
  8
0
100
AcDbLine
 10
1309.755882356731
 20
1940.632877339718
 30
0.0
 11
1327.48695800496
 21
1940.632877339718
 31
0.0
  0
LINE
  5
972
330
1F
100
AcDbEntity
  8
0
100
AcDbLine
 10
1314.240401250562
 20
1962.557239644037
 30
0.0
 11
1332.179779323546
 21
1963.029000440862
 31
0.0
  0
LINE
  5
973
330
1F
100
AcDbEntity
  8
0
100
AcDbLine
 10
1333.123954047344
 20
1961.613729495055
 30
0.0
 11
1316.128750698161
 21
1960.198458549248
 31
0.0
  0
LINE
  5
974
330
1F
100
AcDbEntity
  8
0
100
AcDbLine
 10
1344.755882356731
 20
1940.632877339718
 30
0.0
 11
1362.48695800496
 21
1940.632877339718
 31
0.0
  0
LINE
  5
975
330
1F
100
AcDbEntity
  8
0
100
AcDbLine
 10
1429.579407981384
 20
1885.839689770842
 30
0.0
 11
1430.038497191034
 21
1887.865793315241
 31
0.0
  0
LINE
  5
976
330
1F
100
AcDbEntity
  8
0
100
AcDbLine
 10
1601.843012171539
 20
1926.780115968941
 30
0.0
 11
1601.251497984327
 21
1928.028212088216
 31
0.0
  0
ARC
  5
977
330
1F
100
AcDbEntity
  8
0
100
AcDbCircle
 10
1289.093495862982
 20
2107.964908679254
 30
0.0
 40
37.41669737325788
100
AcDbArc
 50
5.519872325000806
 51
48.93762289530262
  0
LINE
  5
978
330
1F
100
AcDbEntity
  8
0
100
AcDbLine
 10
1338.799395515978
 20
2099.939817744162
 30
0.0
 11
1338.799395515978
 21
2211.055476542096
 31
0.0
  0
LINE
  5
979
330
1F
100
AcDbEntity
  8
0
100
AcDbLine
 10
1335.720969915978
 20
2099.939817744162
 30
0.0
 11
1335.720969915978
 21
2211.055476542096
 31
0.0
  0
ARC
  5
97A
330
1F
100
AcDbEntity
  8
0
100
AcDbCircle
 10
1385.426869568974
 20
2107.964908679254
 30
0.0
 40
37.41669737325788
100
AcDbArc
 50
131.0623771046973
 51
175.2307665409242
  0
LINE
  5
97B
330
1F
100
AcDbEntity
  8
0
100
AcDbLine
 10
1269.78541900681
 20
1978.918712039593
 30
0.0
 11
1272.759647590816
 21
1978.518972845186
 31
0.0
  0
LINE
  5
97C
330
1F
100
AcDbEntity
  8
0
100
AcDbLine
 10
1329.06109447157
 20
2016.096728026345
 30
0.0
 11
1309.636927383603
 21
2015.109751015658
 31
0.0
  0
LINE
  5
97D
330
1F
100
AcDbEntity
  8
0
100
AcDbLine
 10
1308.978485654582
 20
2017.412693559036
 30
0.0
 11
1329.719536200588
 21
2017.08370503703
 31
0.0
  0
ARC
  5
97E
330
1F
100
AcDbEntity
  8
0
100
AcDbCircle
 10
1232.856590518001
 20
2017.369123695289
 30
0.0
 40
74.24670187285427
100
AcDbArc
 50
345.5674138149892
 51
14.43258618501076
  0
LINE
  5
97F
330
1F
100
AcDbEntity
  8
0
100
AcDbLine
 10
1364.06109447157
 20
2016.096728026345
 30
0.0
 11
1344.636927383603
 21
2015.109751015658
 31
0.0
  0
ARC
  5
980
330
1F
100
AcDbEntity
  8
0
100
AcDbCircle
 10
1382.474445077264
 20
2017.369123695289
 30
0.0
 40
51.17711403260225
100
AcDbArc
 50
158.8019222469722
 51
201.1980777530278
  0
ARC
  5
981
330
1F
100
AcDbEntity
  8
0
100
AcDbCircle
 10
1267.856590518001
 20
2017.369123695289
 30
0.0
 40
74.24670187285427
100
AcDbArc
 50
345.5674138149892
 51
14.43258618501076
  0
LINE
  5
982
330
1F
100
AcDbEntity
  8
0
100
AcDbLine
 10
1343.978485654582
 20
2017.412693559036
 30
0.0
 11
1364.719536200588
 21
2017.08370503703
 31
0.0
  0
LINE
  5
983
330
1F
100
AcDbEntity
  8
0
100
AcDbLine
 10
1329.719205716108
 20
1988.424245213346
 30
0.0
 11
1309.307376034609
 21
1988.424245213346
 31
0.0
  0
LINE
  5
984
330
1F
100
AcDbEntity
  8
0
100
AcDbLine
 10
1309.307376034609
 20
1991.385176245403
 30
0.0
 11
1327.743880529044
 21
1990.398199234716
 31
0.0
  0
LINE
  5
985
330
1F
100
AcDbEntity
  8
0
100
AcDbLine
 10
1364.719205716109
 20
1988.424245213346
 30
0.0
 11
1344.307376034609
 21
1988.424245213346
 31
0.0
  0
LINE
  5
986
330
1F
100
AcDbEntity
  8
0
100
AcDbLine
 10
1344.307376034609
 20
1991.385176245403
 30
0.0
 11
1362.743880529044
 21
1990.398199234716
 31
0.0
  0
ARC
  5
987
330
1F
100
AcDbEntity
  8
0
100
AcDbCircle
 10
1417.474445077264
 20
2017.369123695289
 30
0.0
 40
51.17711403260225
100
AcDbArc
 50
158.8019222469722
 51
201.1980777530278
  0
LINE
  5
988
330
1F
100
AcDbEntity
  8
0
100
AcDbLine
 10
1404.734946425146
 20
1978.918712039593
 30
0.0
 11
1401.76071784114
 21
1978.518972845186
 31
0.0
  0
ARC
  5
989
330
1F
100
AcDbEntity
  8
0
100
AcDbCircle
 10
1367.463629029392
 20
2092.757609749084
 30
0.0
 40
16.57916415756511
100
AcDbArc
 50
229.5667736709953
 51
326.1507681695634
  0
ARC
  5
98A
330
1F
100
AcDbEntity
  8
0
100
AcDbCircle
 10
1372.142811049153
 20
2092.15218369071
 30
0.0
 40
9.326595531756161
100
AcDbArc
 50
188.9343945749866
 51
297.4493894298354
  0
ARC
  5
98B
330
1F
100
AcDbEntity
  8
0
100
AcDbCircle
 10
1354.124059289107
 20
2095.602650075375
 30
0.0
 40
10.11844186017164
100
AcDbArc
 50
1.074163857935705
 51
142.8335312582899
  0
ARC
  5
98C
330
1F
100
AcDbEntity
  8
0
100
AcDbCircle
 10
1355.841076587434
 20
2099.473917834351
 30
0.0
 40
14.5275128339534
100
AcDbArc
 50
355.4006534019009
 51
114.2864388569413
  0
LINE
  5
98D
330
1F
100
AcDbEntity
  8
0
100
AcDbLine
 10
1369.760182715982
 20
2045.996307667838
 30
0.0
 11
1304.760182715976
 21
2045.996307667838
 31
0.0
  0
ARC
  5
98E
330
1F
100
AcDbEntity
  8
0
100
AcDbCircle
 10
1372.512859977529
 20
2082.164335358503
 30
0.0
 40
32.893141600994
100
AcDbArc
 50
143.5311802483503
 51
178.6000172642751
  0
ARC
  5
98F
330
1F
100
AcDbEntity
  8
0
100
AcDbCircle
 10
1347.036072022611
 20
2083.986987817831
 30
0.0
 40
2.685763875144509
100
AcDbArc
 50
58.06114487159439
 51
148.3585776194813
  0
ARC
  5
990
330
1F
100
AcDbEntity
  8
0
100
AcDbCircle
 10
1322.203218379944
 20
2088.299331648394
 30
0.0
 40
10.88120209276953
100
AcDbArc
 50
107.6337493183975
 51
167.2340928926068
  0
ARC
  5
991
330
1F
100
AcDbEntity
  8
0
100
AcDbCircle
 10
1302.377554382804
 20
2092.15218369071
 30
0.0
 40
9.326595531756161
100
AcDbArc
 50
242.5506105701645
 51
351.0656054250134
  0
ARC
  5
992
330
1F
100
AcDbEntity
  8
0
100
AcDbCircle
 10
1302.007505454427
 20
2082.164335358503
 30
0.0
 40
32.893141600994
100
AcDbArc
 50
1.399982735724853
 51
36.46881975164971
  0
ARC
  5
993
330
1F
100
AcDbEntity
  8
0
100
AcDbCircle
 10
1327.484293409345
 20
2083.986987817831
 30
0.0
 40
2.685763875144509
100
AcDbArc
 50
31.64142238051862
 51
121.9388551284056
  0
ARC
  5
994
330
1F
100
AcDbEntity
  8
0
100
AcDbCircle
 10
1352.028280546094
 20
2042.669678413402
 30
0.0
 40
50.74272281704519
100
AcDbArc
 50
120.7767938400921
 51
132.4045855633192
  0
ARC
  5
995
330
1F
100
AcDbEntity
  8
0
100
AcDbCircle
 10
1320.533106582427
 20
2093.553451085141
 30
0.0
 40
5.368032000000001
100
AcDbArc
 50
52.93377604468521
 51
107.6337493183975
  0
ARC
  5
996
330
1F
100
AcDbEntity
  8
0
100
AcDbCircle
 10
1352.317147052012
 20
2088.299331648394
 30
0.0
 40
10.88120209276953
100
AcDbArc
 50
12.76590710739314
 51
72.3662506816024
  0
ARC
  5
997
330
1F
100
AcDbEntity
  8
0
100
AcDbCircle
 10
1322.492084885859
 20
2042.669678413402
 30
0.0
 40
50.74272281704519
100
AcDbArc
 50
47.5954144366808
 51
59.22320615990781
  0
ARC
  5
998
330
1F
100
AcDbEntity
  8
0
100
AcDbCircle
 10
1353.987258849529
 20
2093.553451085141
 30
0.0
 40
5.368032000000001
100
AcDbArc
 50
72.3662506816024
 51
127.0662239553147
  0
ARC
  5
999
330
1F
100
AcDbEntity
  8
0
100
AcDbCircle
 10
1296.940599767144
 20
2097.205512311937
 30
0.0
 40
7.341363607431002
100
AcDbArc
 50
267.8871767185645
 51
8.64488715364688
  0
ARC
  5
99A
330
1F
100
AcDbEntity
  8
0
100
AcDbCircle
 10
1296.058190199731
 20
2086.120724026462
 30
0.0
 40
3.798007483754266
100
AcDbArc
 50
80.73087304288872
 51
223.1575945276128
  0
ARC
  5
99B
330
1F
100
AcDbEntity
  8
0
100
AcDbCircle
 10
1364.660933891579
 20
2079.423016546639
 30
0.0
 40
23.07668861618964
100
AcDbArc
 50
127.0662239553147
 51
191.3623460785233
  0
ARC
  5
99C
330
1F
100
AcDbEntity
  8
0
100
AcDbCircle
 10
1364.336785917031
 20
2074.648306125696
 30
0.0
 40
22.34214450826782
100
AcDbArc
 50
151.2461477809113
 51
237.8878315242127
  0
ARC
  5
99D
330
1F
100
AcDbEntity
  8
0
100
AcDbCircle
 10
1309.859431540377
 20
2079.423016546639
 30
0.0
 40
23.07668861618964
100
AcDbArc
 50
348.6376539214766
 51
52.93377604468521
  0
ARC
  5
99E
330
1F
100
AcDbEntity
  8
0
100
AcDbCircle
 10
1307.056736402565
 20
2092.757609749084
 30
0.0
 40
16.57916415756511
100
AcDbArc
 50
213.8492318304365
 51
310.4332263290046
  0
ARC
  5
99F
330
1F
100
AcDbEntity
  8
0
100
AcDbCircle
 10
1310.183579514922
 20
2074.648306125696
 30
0.0
 40
22.34214450826782
100
AcDbArc
 50
302.1121684757872
 51
28.75385221908868
  0
LINE
  5
9A0
330
1F
100
AcDbEntity
  8
0
100
AcDbLine
 10
1322.060182715979
 20
2055.724307667837
 30
0.0
 11
1352.460182715977
 21
2055.724307667837
 31
0.0
  0
LINE
  5
9A1
330
1F
100
AcDbEntity
  8
0
100
AcDbLine
 10
1322.060182715979
 20
2055.724307667837
 30
0.0
 11
1322.060182715979
 21
2045.996307667838
 31
0.0
  0
LINE
  5
9A2
330
1F
100
AcDbEntity
  8
0
100
AcDbLine
 10
1352.460182715977
 20
2055.724307667837
 30
0.0
 11
1352.460182715977
 21
2045.996307667838
 31
0.0
  0
LINE
  5
9A3
330
1F
100
AcDbEntity
  8
0
100
AcDbLine
 10
1322.060182715979
 20
2045.996307667838
 30
0.0
 11
1352.460182715977
 21
2045.996307667838
 31
0.0
  0
ARC
  5
9A4
330
1F
100
AcDbEntity
  8
0
100
AcDbCircle
 10
1365.638656178775
 20
2087.872505365367
 30
0.0
 40
29.42729924700956
100
AcDbArc
 50
122.4110471040166
 51
160.1336399450983
  0
ARC
  5
9A5
330
1F
100
AcDbEntity
  8
0
100
AcDbCircle
 10
1308.881709253181
 20
2087.872505365367
 30
0.0
 40
29.42729924700956
100
AcDbArc
 50
19.8663600549016
 51
57.58895289598335
  0
ARC
  5
9A6
330
1F
100
AcDbEntity
  8
0
100
AcDbCircle
 10
1318.679288844522
 20
2099.473917834351
 30
0.0
 40
14.5275128339534
100
AcDbArc
 50
65.71356114305867
 51
184.5993465980989
  0
ARC
  5
9A7
330
1F
100
AcDbEntity
  8
0
100
AcDbCircle
 10
1320.39630614285
 20
2095.602650075375
 30
0.0
 40
10.11844186017164
100
AcDbArc
 50
37.16646874171003
 51
178.9258361420642
  0
ARC
  5
9A8
330
1F
100
AcDbEntity
  8
0
100
AcDbCircle
 10
1377.579765664812
 20
2097.205512311937
 30
0.0
 40
7.341363607431002
100
AcDbArc
 50
171.3551128463531
 51
272.1128232814354
  0
ARC
  5
9A9
330
1F
100
AcDbEntity
  8
0
100
AcDbCircle
 10
1378.462175232222
 20
2086.120724026462
 30
0.0
 40
3.798007483754266
100
AcDbArc
 50
316.8424054723871
 51
99.26912695711129
  0
ARC
  5
9AA
330
1F
100
AcDbEntity
  8
0
100
AcDbCircle
 10
1539.989101970112
 20
2226.259449624945
 30
0.0
 40
200.5148160264889
100
AcDbArc
 50
184.2770010713315
 51
206.6959782804616
  0
ARC
  5
9AB
330
1F
100
AcDbEntity
  8
0
100
AcDbCircle
 10
1134.531263461844
 20
2226.259449624945
 30
0.0
 40
200.5148160264889
100
AcDbArc
 50
333.3040217195383
 51
355.7229989286684
  0
LINE
  5
9AC
330
1F
100
AcDbEntity
  8
0
100
AcDbLine
 10
1360.012809143131
 20
2137.858513734008
 30
0.0
 11
1338.799395515978
 21
2137.858513734008
 31
0.0
  0
LINE
  5
9AD
330
1F
100
AcDbEntity
  8
0
100
AcDbLine
 10
1359.042261761943
 20
2134.495300934008
 30
0.0
 11
1338.799395515978
 21
2134.495300934008
 31
0.0
  0
LINE
  5
9AE
330
1F
100
AcDbEntity
  8
0
100
AcDbLine
 10
1314.507556288825
 20
2137.858513734008
 30
0.0
 11
1335.720969915978
 21
2137.858513734008
 31
0.0
  0
LINE
  5
9AF
330
1F
100
AcDbEntity
  8
0
100
AcDbLine
 10
1315.478103670014
 20
2134.495300934008
 30
0.0
 11
1335.720969915978
 21
2134.495300934008
 31
0.0
  0
ARC
  5
9B0
330
1F
100
AcDbEntity
  8
0
100
AcDbCircle
 10
1339.93120543429
 20
2210.51588438736
 30
0.0
 40
5.500481506739635
100
AcDbArc
 50
119.0516579748745
 51
171.7478547949488
  0
ARC
  5
9B1
330
1F
100
AcDbEntity
  8
0
100
AcDbCircle
 10
1334.589159997666
 20
2210.51588438736
 30
0.0
 40
5.500481506739635
100
AcDbArc
 50
8.252145205051128
 51
60.94834202512543
  0
ARC
  5
9B2
330
1F
100
AcDbEntity
  8
0
100
AcDbCircle
 10
2170.24647090326
 20
1654.35576769722
 30
0.0
 40
26.16757325024626
100
AcDbArc
 50
177.2127742845777
 51
212.8375711928677
  0
LINE
  5
9B3
330
1F
100
AcDbEntity
  8
0
100
AcDbLine
 10
2146.512191971768
 20
1330.398343542452
 30
0.0
 11
2128.763445123903
 21
1328.055825325621
 31
0.0
  0
ARC
  5
9B4
330
1F
100
AcDbEntity
  8
0
100
AcDbCircle
 10
2078.678583220415
 20
1308.030574614523
 30
0.0
 40
47.3092865871033
100
AcDbArc
 50
326.7886702846587
 51
33.21132971534122
  0
MTEXT
  5
9B5
330
1F
100
AcDbEntity
  8
0
 62
   255
100
AcDbMText
 10
2429.292432261286
 20
1320.128220412587
 30
0.0
 40
40.0
 41
0.0
 71
     5
 72
     1
  1
1785
  7
CENTURY
 11
0.0000000000000001
 21
1.0
 31
0.0
1001
ACAD
1000
MTEXTBEGIN
1070
    73
1070
     1
1070
    44
1040
1.0
1070
    74
1070
     0
1000
MTEXTEND
  0
ARC
  5
9B6
330
1F
100
AcDbEntity
  8
0
100
AcDbCircle
 10
2101.28374463465
 20
1175.875590256302
 30
0.0
 40
18.83062952425546
100
AcDbArc
 50
334.3603398614806
 51
25.63966013851934
  0
ARC
  5
9B7
330
1F
100
AcDbEntity
  8
0
100
AcDbCircle
 10
2160.499088149593
 20
1175.875590256302
 30
0.0
 40
14.70319572620801
100
AcDbArc
 50
146.3458272488429
 51
213.654172751157
  0
MTEXT
  5
9B8
330
1F
100
AcDbEntity
  8
0
 62
   255
100
AcDbMText
 10
2352.27500642207
 20
1182.628220412587
 30
0.0
 40
30.0
 41
0.0
 71
     5
 72
     1
  1
1350
  7
ｽﾀｲﾙ2
 11
0.0000000000000001
 21
1.0
 31
0.0
1001
ACAD
1000
MTEXTBEGIN
1070
    73
1070
     1
1070
    44
1040
1.0
1070
    74
1070
     0
1000
MTEXTEND
  0
ARC
  5
9B9
330
1F
100
AcDbEntity
  8
0
100
AcDbCircle
 10
2016.282423223005
 20
1070.271121598403
 30
0.0
 40
106.6116003211486
100
AcDbArc
 50
343.0452386242168
 51
16.9547613757832
  0
LINE
  5
9BA
330
1F
100
AcDbEntity
  8
0
100
AcDbLine
 10
2146.623954047355
 20
1042.158161997654
 30
0.0
 11
2129.628750698172
 21
1040.742891051847
 31
0.0
  0
LINE
  5
9BB
330
1F
100
AcDbEntity
  8
0
100
AcDbLine
 10
2127.740401250572
 20
1043.101672146636
 30
0.0
 11
2145.679779323557
 21
1043.573432943461
 31
0.0
  0
LINE
  5
9BC
330
1F
100
AcDbEntity
  8
0
100
AcDbLine
 10
2124.644150462821
 20
1068.572417644814
 30
0.0
 11
2146.936534046203
 21
1067.970347820244
 31
0.0
  0
LINE
  5
9BD
330
1F
100
AcDbEntity
  8
0
100
AcDbLine
 10
2145.129036655024
 20
1069.776557293956
 30
0.0
 11
2124.644150462821
 21
1073.388999130723
 31
0.0
  0
LINE
  5
9BE
330
1F
100
AcDbEntity
  8
0
100
AcDbLine
 10
2123.255882356742
 20
1021.177309842317
 30
0.0
 11
2140.986958004972
 21
1021.177309842317
 31
0.0
  0
LINE
  5
9BF
330
1F
100
AcDbEntity
  8
0
100
AcDbLine
 10
2123.747273900423
 20
1142.766402163804
 30
0.0
 11
2146.134720372939
 21
1148.653689875836
 31
0.0
  0
LINE
  5
9C0
330
1F
100
AcDbEntity
  8
0
100
AcDbLine
 10
2146.134720372939
 20
1148.653689875836
 30
0.0
 11
2124.532796632768
 21
1147.476239200233
 31
0.0
  0
LINE
  5
9C1
330
1F
100
AcDbEntity
  8
0
100
AcDbLine
 10
2143.531299708375
 20
1111.975475307253
 30
0.0
 11
2120.531329409526
 21
1112.754594197274
 31
0.0
  0
LINE
  5
9C2
330
1F
100
AcDbEntity
  8
0
100
AcDbLine
 10
2122.870304167981
 20
1114.702374255318
 30
0.0
 11
2144.310951481104
 21
1114.702374255318
 31
0.0
  0
ARC
  5
9C3
330
1F
100
AcDbEntity
  8
0
100
AcDbCircle
 10
2176.675892523696
 20
1113.128062434396
 30
0.0
 40
30.75581818224811
100
AcDbArc
 50
157.5050578834445
 51
202.4949421165554
  0
ARC
  5
9C4
330
1F
100
AcDbEntity
  8
0
100
AcDbCircle
 10
2063.015741601319
 20
1146.311343329077
 30
0.0
 40
59.25027723911768
100
AcDbArc
 50
338.8106919803585
 51
21.18930801964145
  0
ARC
  5
9C5
330
1F
100
AcDbEntity
  8
0
100
AcDbCircle
 10
2195.974445077275
 20
1263.612620665691
 30
0.0
 40
51.17711403260225
100
AcDbArc
 50
158.8019222469722
 51
201.1980777530278
  0
ARC
  5
9C6
330
1F
100
AcDbEntity
  8
0
100
AcDbCircle
 10
2046.356590518012
 20
1263.612620665691
 30
0.0
 40
74.24670187285427
100
AcDbArc
 50
345.5674138149892
 51
14.43258618501076
  0
ARC
  5
9C7
330
1F
100
AcDbEntity
  8
0
100
AcDbCircle
 10
2046.356590518012
 20
1202.529091035246
 30
0.0
 40
74.24670187285427
100
AcDbArc
 50
345.5674138149892
 51
14.43258618501076
  0
ARC
  5
9C8
330
1F
100
AcDbEntity
  8
0
100
AcDbCircle
 10
2195.974445077275
 20
1202.529091035246
 30
0.0
 40
51.17711403260225
100
AcDbArc
 50
158.8019222469722
 51
201.1980777530278
  0
LINE
  5
9C9
330
1F
100
AcDbEntity
  8
0
100
AcDbLine
 10
2122.198098732312
 20
1174.192256496307
 30
0.0
 11
2144.419117107922
 21
1177.152981524282
 31
0.0
  0
LINE
  5
9CA
330
1F
100
AcDbEntity
  8
0
100
AcDbLine
 10
2142.937710698811
 20
1174.192256496307
 30
0.0
 11
2121.704296595941
 21
1172.711899704655
 31
0.0
  0
LINE
  5
9CB
330
1F
100
AcDbEntity
  8
0
100
AcDbLine
 10
2143.21920571612
 20
1234.667742183748
 30
0.0
 11
2122.80737603462
 21
1234.667742183748
 31
0.0
  0
LINE
  5
9CC
330
1F
100
AcDbEntity
  8
0
100
AcDbLine
 10
2122.80737603462
 20
1237.628673215805
 30
0.0
 11
2141.243880529056
 21
1236.641696205118
 31
0.0
  0
LINE
  5
9CD
330
1F
100
AcDbEntity
  8
0
100
AcDbLine
 10
2142.440409314987
 20
1200.399352147752
 30
0.0
 11
2122.194599484858
 21
1201.386260490411
 31
0.0
  0
LINE
  5
9CE
330
1F
100
AcDbEntity
  8
0
100
AcDbLine
 10
2123.182203757599
 20
1204.346974073714
 30
0.0
 11
2141.94662661888
 21
1201.386260490411
 31
0.0
  0
LINE
  5
9CF
330
1F
100
AcDbEntity
  8
0
100
AcDbLine
 10
2129.433220526619
 20
1326.717233677714
 30
0.0
 11
2146.512191971768
 21
1327.051887312026
 31
0.0
  0
LINE
  5
9D0
330
1F
100
AcDbEntity
  8
0
100
AcDbLine
 10
2142.561094471581
 20
1262.340224996747
 30
0.0
 11
2123.136927383614
 21
1261.35324798606
 31
0.0
  0
LINE
  5
9D1
330
1F
100
AcDbEntity
  8
0
100
AcDbLine
 10
2122.478485654593
 20
1263.656190529438
 30
0.0
 11
2143.219536200599
 21
1263.327202007432
 31
0.0
  0
ARC
  5
9D2
330
1F
100
AcDbEntity
  8
0
100
AcDbCircle
 10
2176.675892523696
 20
1480.434522644118
 30
0.0
 40
30.75581818224811
100
AcDbArc
 50
157.5050578834445
 51
202.4949421165554
  0
LINE
  5
9D3
330
1F
100
AcDbEntity
  8
0
100
AcDbLine
 10
2146.623954047355
 20
1409.464622207376
 30
0.0
 11
2129.628750698172
 21
1408.04935126157
 31
0.0
  0
ARC
  5
9D4
330
1F
100
AcDbEntity
  8
0
100
AcDbCircle
 10
2016.282423223005
 20
1437.577581808125
 30
0.0
 40
106.6116003211486
100
AcDbArc
 50
343.0452386242168
 51
16.9547613757832
  0
ARC
  5
9D5
330
1F
100
AcDbEntity
  8
0
100
AcDbCircle
 10
2171.497260462002
 20
1391.832280600967
 30
0.0
 40
27.47268131795497
100
AcDbArc
 50
147.7604243756004
 51
212.2395756243995
  0
LINE
  5
9D6
330
1F
100
AcDbEntity
  8
0
100
AcDbLine
 10
2123.255882356742
 20
1388.483770052039
 30
0.0
 11
2140.986958004972
 21
1388.483770052039
 31
0.0
  0
ARC
  5
9D7
330
1F
100
AcDbEntity
  8
0
100
AcDbCircle
 10
2065.388889561826
 20
1355.559957023381
 30
0.0
 40
57.11966942967778
100
AcDbArc
 50
337.7625217859816
 51
22.23747821401841
  0
LINE
  5
9D8
330
1F
100
AcDbEntity
  8
0
100
AcDbLine
 10
2123.025690195144
 20
1360.358272813849
 30
0.0
 11
2142.381330353827
 21
1361.773543759656
 31
0.0
  0
ARC
  5
9D9
330
1F
100
AcDbEntity
  8
0
100
AcDbCircle
 10
2079.334946868498
 20
1391.832280600967
 30
0.0
 40
41.59279291423044
100
AcDbArc
 50
339.3683311470979
 51
20.63166885290214
  0
LINE
  5
9DA
330
1F
100
AcDbEntity
  8
0
100
AcDbLine
 10
2124.644150462821
 20
1435.878877854536
 30
0.0
 11
2146.936534046203
 21
1435.276808029966
 31
0.0
  0
LINE
  5
9DB
330
1F
100
AcDbEntity
  8
0
100
AcDbLine
 10
2145.129036655024
 20
1437.083017503678
 30
0.0
 11
2124.644150462821
 21
1440.695459340445
 31
0.0
  0
LINE
  5
9DC
330
1F
100
AcDbEntity
  8
0
100
AcDbLine
 10
2122.870304167981
 20
1482.00883446504
 30
0.0
 11
2144.310951481104
 21
1482.00883446504
 31
0.0
  0
LINE
  5
9DD
330
1F
100
AcDbEntity
  8
0
100
AcDbLine
 10
2143.531299708375
 20
1479.281935516975
 30
0.0
 11
2120.531329409526
 21
1480.061054406996
 31
0.0
  0
LINE
  5
9DE
330
1F
100
AcDbEntity
  8
0
100
AcDbLine
 10
2127.740401250572
 20
1410.408132356358
 30
0.0
 11
2145.679779323557
 21
1410.879893153183
 31
0.0
  0
ARC
  5
9DF
330
1F
100
AcDbEntity
  8
0
100
AcDbCircle
 10
2195.974445077275
 20
1569.835551244968
 30
0.0
 40
51.17711403260225
100
AcDbArc
 50
158.8019222469722
 51
201.1980777530278
  0
ARC
  5
9E0
330
1F
100
AcDbEntity
  8
0
100
AcDbCircle
 10
2046.356590518012
 20
1569.835551244968
 30
0.0
 40
74.24670187285427
100
AcDbArc
 50
345.5674138149892
 51
14.43258618501076
  0
LINE
  5
9E1
330
1F
100
AcDbEntity
  8
0
100
AcDbLine
 10
2122.198098732312
 20
1541.498716706029
 30
0.0
 11
2144.419117107922
 21
1544.459441734004
 31
0.0
  0
LINE
  5
9E2
330
1F
100
AcDbEntity
  8
0
100
AcDbLine
 10
2146.134720372939
 20
1515.960150085558
 30
0.0
 11
2124.532796632768
 21
1514.782699409955
 31
0.0
  0
LINE
  5
9E3
330
1F
100
AcDbEntity
  8
0
100
AcDbLine
 10
2123.747273900423
 20
1510.072862373526
 30
0.0
 11
2146.134720372939
 21
1515.960150085558
 31
0.0
  0
ARC
  5
9E4
330
1F
100
AcDbEntity
  8
0
100
AcDbCircle
 10
2063.015741601319
 20
1513.617803538799
 30
0.0
 40
59.25027723911768
100
AcDbArc
 50
338.8106919803585
 51
21.18930801964145
  0
LINE
  5
9E5
330
1F
100
AcDbEntity
  8
0
100
AcDbLine
 10
2142.937710698811
 20
1541.498716706029
 30
0.0
 11
2121.704296595941
 21
1540.018359914378
 31
0.0
  0
ARC
  5
9E6
330
1F
100
AcDbEntity
  8
0
100
AcDbCircle
 10
2101.28374463465
 20
1543.182050466024
 30
0.0
 40
18.83062952425546
100
AcDbArc
 50
334.3603398614806
 51
25.63966013851934
  0
ARC
  5
9E7
330
1F
100
AcDbEntity
  8
0
100
AcDbCircle
 10
2160.499088149593
 20
1543.182050466024
 30
0.0
 40
14.70319572620801
100
AcDbArc
 50
146.3458272488429
 51
213.654172751157
  0
LINE
  5
9E8
330
1F
100
AcDbEntity
  8
0
100
AcDbLine
 10
2123.182203757599
 20
1571.653434283436
 30
0.0
 11
2141.94662661888
 21
1568.692720700133
 31
0.0
  0
LINE
  5
9E9
330
1F
100
AcDbEntity
  8
0
100
AcDbLine
 10
2142.440409314987
 20
1567.705812357474
 30
0.0
 11
2122.194599484858
 21
1568.692720700133
 31
0.0
  0
ARC
  5
9EA
330
1F
100
AcDbEntity
  8
0
100
AcDbCircle
 10
2187.841782211552
 20
1614.2535051938
 30
0.0
 40
47.3092865871033
100
AcDbArc
 50
146.7886702846587
 51
213.2113297153412
  0
LINE
  5
9EB
330
1F
100
AcDbEntity
  8
0
100
AcDbLine
 10
2123.897663779837
 20
1618.748874811871
 30
0.0
 11
2139.418167610861
 21
1616.224065870122
 31
0.0
  0
LINE
  5
9EC
330
1F
100
AcDbEntity
  8
0
100
AcDbLine
 10
2139.418167610861
 20
1618.748874811871
 30
0.0
 11
2123.897663779837
 21
1618.748874811871
 31
0.0
  0
LINE
  5
9ED
330
1F
100
AcDbEntity
  8
0
  6
CONTINUOUS
 62
     7
100
AcDbLine
 10
2139.56018271599
 20
1808.628220412589
 30
0.0
 11
2139.56018271599
 21
1734.628220412589
 31
0.0
  0
LINE
  5
9EE
330
1F
100
AcDbEntity
  8
0
  6
CONTINUOUS
 62
     7
100
AcDbLine
 10
2159.56018271599
 20
1808.628220412589
 30
0.0
 11
2159.56018271599
 21
1734.628220412589
 31
0.0
  0
LINE
  5
9EF
330
1F
100
AcDbEntity
  8
0
  6
CONTINUOUS
 62
     7
100
AcDbLine
 10
2139.56018271599
 20
1731.628220412589
 30
0.0
 11
2139.56018271599
 21
1657.628220412589
 31
0.0
  0
LINE
  5
9F0
330
1F
100
AcDbEntity
  8
0
  6
CONTINUOUS
 62
     7
100
AcDbLine
 10
2159.56018271599
 20
1657.628220412589
 30
0.0
 11
2159.56018271599
 21
1731.628220412589
 31
0.0
  0
ARC
  5
9F1
330
1F
100
AcDbEntity
  8
0
100
AcDbCircle
 10
2095.023104969969
 20
1698.055211180244
 30
0.0
 40
27.47268131795497
100
AcDbArc
 50
327.7604243756004
 51
32.23957562439952
  0
LINE
  5
9F2
330
1F
100
AcDbEntity
  8
0
100
AcDbLine
 10
2139.560182715988
 20
1698.968352893856
 30
0.0
 11
2122.759358583466
 21
1698.968352893856
 31
0.0
  0
LINE
  5
9F3
330
1F
100
AcDbEntity
  8
0
100
AcDbLine
 10
2124.274435529176
 20
1696.444985980695
 30
0.0
 11
2139.56018271599
 21
1698.10531482935
 31
0.0
  0
LINE
  5
9F4
330
1F
100
AcDbEntity
  8
0
  6
CONTINUOUS
 62
     7
100
AcDbLine
 10
2139.560182715988
 20
1657.628220412589
 30
0.0
 11
2159.56018271599
 21
1657.628220412589
 31
0.0
  0
LINE
  5
9F5
330
1F
100
AcDbEntity
  8
0
  6
CONTINUOUS
 62
     7
100
AcDbLine
 10
2140.560182715991
 20
1655.628220412589
 30
0.0
 11
2158.56018271599
 21
1655.628220412589
 31
0.0
  0
LINE
  5
9F6
330
1F
100
AcDbEntity
  8
0
  6
CONTINUOUS
 62
     7
100
AcDbLine
 10
2141.56018271599
 20
1657.628220412589
 30
0.0
 11
2157.56018271599
 21
1657.628220412589
 31
0.0
  0
ARC
  5
9F7
330
1F
100
AcDbEntity
  8
0
  6
CONTINUOUS
 62
     7
100
AcDbCircle
 10
2140.560182715991
 20
1656.128220412589
 30
0.0
 40
0.5
100
AcDbArc
 50
180.0
 51
270.0
  0
LINE
  5
9F8
330
1F
100
AcDbEntity
  8
0
  6
CONTINUOUS
 62
     7
100
AcDbLine
 10
2140.06018271599
 20
1657.128220412589
 30
0.0
 11
2140.06018271599
 21
1656.128220412589
 31
0.0
  0
ARC
  5
9F9
330
1F
100
AcDbEntity
  8
0
  6
CONTINUOUS
 62
     7
100
AcDbCircle
 10
2140.560182715991
 20
1657.128220412589
 30
0.0
 40
0.5
100
AcDbArc
 50
90.0
 51
180.0
  0
LINE
  5
9FA
330
1F
100
AcDbEntity
  8
0
100
AcDbLine
 10
2119.224166083296
 20
1653.586470000975
 30
0.0
 11
2142.960455807254
 21
1654.595821344108
 31
0.0
  0
LINE
  5
9FB
330
1F
100
AcDbEntity
  8
0
100
AcDbLine
 10
2140.940359693058
 20
1651.063114532484
 30
0.0
 11
2119.224166083296
 21
1653.586470000975
 31
0.0
  0
ARC
  5
9FC
330
1F
100
AcDbEntity
  8
0
  6
CONTINUOUS
 62
     7
100
AcDbCircle
 10
2158.56018271599
 20
1656.128220412589
 30
0.0
 40
0.5
100
AcDbArc
 50
270.0
 51
0.0
  0
ARC
  5
9FD
330
1F
100
AcDbEntity
  8
0
  6
CONTINUOUS
 62
     7
100
AcDbCircle
 10
2158.56018271599
 20
1657.128220412589
 30
0.0
 40
0.5
100
AcDbArc
 50
0.0
 51
90.0
  0
LINE
  5
9FE
330
1F
100
AcDbEntity
  8
0
  6
CONTINUOUS
 62
     7
100
AcDbLine
 10
2159.06018271599
 20
1656.128220412589
 30
0.0
 11
2159.06018271599
 21
1657.128220412589
 31
0.0
  0
LINE
  5
9FF
330
1F
100
AcDbEntity
  8
0
  6
CONTINUOUS
 62
     7
100
AcDbLine
 10
2139.56018271599
 20
1734.628220412589
 30
0.0
 11
2159.56018271599
 21
1734.628220412589
 31
0.0
  0
LINE
  5
A00
330
1F
100
AcDbEntity
  8
0
  6
CONTINUOUS
 62
     7
100
AcDbLine
 10
2159.56018271599
 20
1731.628220412589
 30
0.0
 11
2139.560182715992
 21
1731.62822041259
 31
0.0
  0
LINE
  5
A01
330
1F
100
AcDbEntity
  8
0
100
AcDbLine
 10
2139.56018271599
 20
1746.176251985976
 30
0.0
 11
2119.727649470952
 21
1747.468775608574
 31
0.0
  0
LINE
  5
A02
330
1F
100
AcDbEntity
  8
0
100
AcDbLine
 10
2139.56018271599
 20
1740.556425393191
 30
0.0
 11
2118.212572525242
 21
1742.926717453817
 31
0.0
  0
LINE
  5
A03
330
1F
100
AcDbEntity
  8
0
  6
CONTINUOUS
 62
     7
100
AcDbLine
 10
2140.06018271599
 20
1734.628220412589
 30
0.0
 11
2140.06018271599
 21
1731.628220412589
 31
0.0
  0
LINE
  5
A04
330
1F
100
AcDbEntity
  8
0
100
AcDbLine
 10
2120.772427559016
 20
1782.390954142548
 30
0.0
 11
2139.560182715988
 21
1781.475124539617
 31
0.0
  0
LINE
  5
A05
330
1F
100
AcDbEntity
  8
0
100
AcDbLine
 10
2122.677281790435
 20
1785.563451368781
 30
0.0
 11
2132.201455746207
 21
1783.659950744107
 31
0.0
  0
LINE
  5
A06
330
1F
100
AcDbEntity
  8
0
  6
CONTINUOUS
 62
     7
100
AcDbLine
 10
2159.06018271599
 20
1734.628220412589
 30
0.0
 11
2159.06018271599
 21
1731.628220412589
 31
0.0
  0
ARC
  5
A07
330
1F
100
AcDbEntity
  8
0
100
AcDbCircle
 10
2089.844472908274
 20
1786.657453223395
 30
0.0
 40
30.75581818224811
100
AcDbArc
 50
337.5050578834446
 51
22.49494211655546
  0
LINE
  5
A08
330
1F
100
AcDbEntity
  8
0
100
AcDbLine
 10
2253.260182715991
 20
1927.628220412587
 30
0.0
 11
2372.553152117433
 21
1927.628220412587
 31
0.0
  0
LINE
  5
A09
330
1F
100
AcDbEntity
  8
0
100
AcDbLine
 10
2253.260182715991
 20
1857.628220412586
 30
0.0
 11
2372.553152117433
 21
1857.628220412586
 31
0.0
  0
LINE
  5
A0A
330
1F
100
AcDbEntity
  8
0
100
AcDbLine
 10
2253.260182715991
 20
1857.628220412586
 30
0.0
 11
2372.553152117433
 21
1857.628220412586
 31
0.0
  0
ARC
  5
A0B
330
1F
100
AcDbEntity
  8
0
100
AcDbCircle
 10
2077.31869612381
 20
1870.877004695357
 30
0.0
 40
70.94624093454081
100
AcDbArc
 50
359.336683826081
 51
33.5180266106358
  0
ARC
  5
A0C
330
1F
100
AcDbEntity
  8
0
100
AcDbCircle
 10
2097.562519268069
 20
1884.852302644288
 30
0.0
 40
1.128188444007362
100
AcDbArc
 50
11.49567458168932
 51
164.9126519476513
  0
ARC
  5
A0D
330
1F
100
AcDbEntity
  8
0
100
AcDbCircle
 10
2092.684904712917
 20
1890.431112835385
 30
0.0
 40
17.52038392394176
100
AcDbArc
 50
156.438902508426
 51
205.3296505612284
  0
ARC
  5
A0E
330
1F
100
AcDbEntity
  8
0
100
AcDbCircle
 10
2006.487424291675
 20
1870.172288867518
 30
0.0
 40
111.7728192568552
100
AcDbArc
 50
359.9402225295563
 51
12.91765025390379
  0
ARC
  5
A0F
330
1F
100
AcDbEntity
  8
0
100
AcDbCircle
 10
2085.28756859004
 20
1894.027902093959
 30
0.0
 40
20.57910459210134
100
AcDbArc
 50
179.6811064805393
 51
289.578700182475
  0
LINE
  5
A10
330
1F
100
AcDbEntity
  8
0
100
AcDbLine
 10
2153.260182715989
 20
1857.628220412587
 30
0.0
 11
2203.260182715993
 21
1857.628220412587
 31
0.0
  0
LINE
  5
A11
330
1F
100
AcDbEntity
  8
0
100
AcDbLine
 10
2153.260182715991
 20
1857.628220412587
 30
0.0
 11
2153.260182715988
 21
1810.628220412589
 31
0.0
  0
LINE
  5
A12
330
1F
100
AcDbEntity
  8
0
100
AcDbLine
 10
2148.260182715984
 20
1870.055674777247
 30
0.0
 11
2148.260182715991
 21
1810.628220412589
 31
0.0
  0
ARC
  5
A13
330
1F
100
AcDbEntity
  8
0
100
AcDbCircle
 10
2203.50462383065
 20
1819.840734118076
 30
0.0
 40
59.25027723911768
100
AcDbArc
 50
158.8106919803585
 51
188.9449104160804
  0
LINE
  5
A14
330
1F
100
AcDbEntity
  8
0
  6
CONTINUOUS
 62
     7
100
AcDbLine
 10
2139.560182715988
 20
1808.628220412589
 30
0.0
 11
2159.56018271599
 21
1808.628220412589
 31
0.0
  0
LINE
  5
A15
330
1F
100
AcDbEntity
  8
0
  6
CONTINUOUS
 62
     7
100
AcDbLine
 10
2140.560182715991
 20
1810.628220412589
 30
0.0
 11
2158.56018271599
 21
1810.628220412589
 31
0.0
  0
LINE
  5
A16
330
1F
100
AcDbEntity
  8
0
100
AcDbLine
 10
2138.545163692198
 20
1807.2223816319
 30
0.0
 11
2120.766673240982
 21
1810.394878858133
 31
0.0
  0
LINE
  5
A17
330
1F
100
AcDbEntity
  8
0
100
AcDbLine
 10
2120.766673240982
 20
1813.567376084368
 30
0.0
 11
2139.56018271599
 21
1808.350628369328
 31
0.0
  0
ARC
  5
A18
330
1F
100
AcDbEntity
  8
0
  6
CONTINUOUS
 62
     7
100
AcDbCircle
 10
2140.560182715991
 20
1810.128220412589
 30
0.0
 40
0.5
100
AcDbArc
 50
90.0
 51
180.0
  0
LINE
  5
A19
330
1F
100
AcDbEntity
  8
0
  6
CONTINUOUS
 62
     7
100
AcDbLine
 10
2140.06018271599
 20
1810.128220412589
 30
0.0
 11
2140.06018271599
 21
1809.128220412589
 31
0.0
  0
ARC
  5
A1A
330
1F
100
AcDbEntity
  8
0
  6
CONTINUOUS
 62
     7
100
AcDbCircle
 10
2140.560182715991
 20
1809.128220412589
 30
0.0
 40
0.5
100
AcDbArc
 50
180.0
 51
270.0
  0
ARC
  5
A1B
330
1F
100
AcDbEntity
  8
0
  6
CONTINUOUS
 62
     7
100
AcDbCircle
 10
2158.56018271599
 20
1810.128220412589
 30
0.0
 40
0.5
100
AcDbArc
 50
0.0
 51
90.0
  0
ARC
  5
A1C
330
1F
100
AcDbEntity
  8
0
  6
CONTINUOUS
 62
     7
100
AcDbCircle
 10
2158.56018271599
 20
1809.128220412589
 30
0.0
 40
0.5
100
AcDbArc
 50
270.0
 51
0.0
  0
LINE
  5
A1D
330
1F
100
AcDbEntity
  8
0
  6
CONTINUOUS
 62
     7
100
AcDbLine
 10
2159.06018271599
 20
1810.128220412589
 30
0.0
 11
2159.06018271599
 21
1809.128220412589
 31
0.0
  0
ARC
  5
A1E
330
1F
100
AcDbEntity
  8
0
100
AcDbCircle
 10
2087.02400604385
 20
1885.077143783083
 30
0.0
 40
11.64406992900598
100
AcDbArc
 50
296.3027226554956
 51
359.9999999998958
  0
ARC
  5
A1F
330
1F
100
AcDbEntity
  8
0
100
AcDbCircle
 10
2086.150360955919
 20
1888.574568182742
 30
0.0
 40
10.87735064798026
100
AcDbArc
 50
211.2268771988876
 51
341.6267402729421
  0
LINE
  5
A20
330
1F
100
AcDbEntity
  8
0
100
AcDbLine
 10
2143.622805029263
 20
1846.593820704581
 30
0.0
 11
2123.939479786896
 21
1848.497321329257
 31
0.0
  0
LINE
  5
A21
330
1F
100
AcDbEntity
  8
0
100
AcDbLine
 10
2125.209376127754
 20
1850.400821953931
 30
0.0
 11
2143.622805029263
 21
1849.131825352372
 31
0.0
  0
LINE
  5
A22
330
1F
100
AcDbEntity
  8
0
100
AcDbLine
 10
2118.260182715986
 20
1857.553180745258
 30
0.0
 11
2118.260182715986
 21
1860.05669259275
 31
0.0
  0
ARC
  5
A23
330
1F
100
AcDbEntity
  8
0
100
AcDbCircle
 10
2106.021277282377
 20
1849.404981045301
 30
0.0
 40
14.70319572620801
100
AcDbArc
 50
326.3458272488429
 51
33.65417275115706
  0
ARC
  5
A24
330
1F
100
AcDbEntity
  8
0
100
AcDbCircle
 10
2165.23662079732
 20
1849.404981045301
 30
0.0
 40
18.83062952425546
100
AcDbArc
 50
154.3603398614806
 51
205.6396601385193
  0
ARC
  5
A25
330
1F
100
AcDbEntity
  8
0
100
AcDbCircle
 10
2095.586082626165
 20
1888.754182035865
 30
0.0
 40
20.85343364328423
100
AcDbArc
 50
17.8870735079623
 51
155.4017735911397
  0
ARC
  5
A26
330
1F
100
AcDbEntity
  8
0
100
AcDbCircle
 10
2099.336427742845
 20
1891.324003900124
 30
0.0
 40
34.74215562530072
100
AcDbArc
 50
133.6824465088042
 51
175.3468023610056
  0
ARC
  5
A27
330
1F
100
AcDbEntity
  8
0
100
AcDbCircle
 10
2103.193752896285
 20
1887.342869499872
 30
0.0
 40
40.28535091271469
100
AcDbArc
 50
34.31507684202663
 51
133.7392253336305
  0
MTEXT
  5
A28
330
1F
100
AcDbEntity
  8
0
 62
   255
100
AcDbMText
 10
2352.27500642207
 20
1892.628220412589
 30
0.0
 40
30.0
 41
0.0
 71
     5
 72
     1
  1
70
  7
ｽﾀｲﾙ2
 11
0.0000000000000001
 21
1.0
 31
0.0
1001
ACAD
1000
MTEXTBEGIN
1070
    73
1070
     1
1070
    44
1040
1.0
1070
    74
1070
     0
1000
MTEXTEND
  0
LINE
  5
A29
330
1F
100
AcDbEntity
  8
0
100
AcDbLine
 10
2372.553152117433
 20
1857.628220412586
 30
0.0
 11
2372.553152117433
 21
1927.628220412587
 31
0.0
  0
INSERT
  5
A2A
330
1F
100
AcDbEntity
  8
0
100
AcDbBlockReference
  2
_DOTSMALL
 10
2372.553152117433
 20
1857.628220412586
 30
0.0
 41
25.0
 42
25.0
 43
25.0
 50
270.0
  0
INSERT
  5
A2B
330
1F
100
AcDbEntity
  8
0
100
AcDbBlockReference
  2
_DOTSMALL
 10
2372.553152117433
 20
1857.628220412586
 30
0.0
 41
25.0
 42
25.0
 43
25.0
 50
90.0
  0
INSERT
  5
A2C
330
1F
100
AcDbEntity
  8
0
100
AcDbBlockReference
  2
_DOTSMALL
 10
2372.553152117433
 20
1927.628220412587
 30
0.0
 41
25.0
 42
25.0
 43
25.0
 50
90.0
  0
INSERT
  5
A2D
330
1F
100
AcDbEntity
  8
0
100
AcDbBlockReference
  2
_DOTSMALL
 10
2454.663293188438
 20
2212.628220412584
 30
0.0
 41
25.0
 42
25.0
 43
25.0
 50
90.0
  0
ENDSEC
  0
SECTION
  2
OBJECTS
  0
DICTIONARY
  5
C
330
0
100
AcDbDictionary
  3
ACAD_GROUP
350
D
  3
ACAD_LAYOUT
350
1A
  3
ACAD_MLINESTYLE
350
17
  3
ACAD_PLOTSETTINGS
350
19
1001
ACAD
1000
TREAT_AS_HARD
1070
     0
  0
DICTIONARY
  5
A2F
330
1F
100
AcDbDictionary
  3
ACAD_LAYOUTSELFREF
350
FF7
1001
ACAD
1000
TREAT_AS_HARD
1070
     1
  0
DICTIONARY
  5
A31
330
1B
100
AcDbDictionary
  3
ACAD_LAYOUTSELFREF
350
FF6
1001
ACAD
1000
TREAT_AS_HARD
1070
     1
  0
DICTIONARY
  5
D
102
{ACAD_REACTORS
330
C
102
}
330
C
100
AcDbDictionary
1001
ACAD
1000
TREAT_AS_HARD
1070
     0
  0
DICTIONARY
  5
1A
102
{ACAD_REACTORS
330
C
102
}
330
C
100
AcDbDictionary
1001
ACAD
1000
TREAT_AS_HARD
1070
     0
  0
DICTIONARY
  5
17
102
{ACAD_REACTORS
330
C
102
}
330
C
100
AcDbDictionary
  3
STANDARD
350
18
1001
ACAD
1000
TREAT_AS_HARD
1070
     0
  0
DICTIONARY
  5
19
102
{ACAD_REACTORS
330
C
102
}
330
C
100
AcDbDictionary
1001
ACAD
1000
TREAT_AS_HARD
1070
     0
  0
XRECORD
  5
FF7
102
{ACAD_REACTORS
330
A2F
102
}
330
A2F
100
AcDbXrecord
340
1F
  0
XRECORD
  5
FF6
102
{ACAD_REACTORS
330
A31
102
}
330
A31
100
AcDbXrecord
340
1B
  0
MLINESTYLE
  5
18
102
{ACAD_REACTORS
330
17
102
}
330
17
100
AcDbMlineStyle
  2
STANDARD
 70
     0
  3

 62
   256
 51
90.0
 52
90.0
 71
     2
 49
0.5
 62
   256
  6
BYLAYER
 49
-0.5
 62
   256
  6
BYLAYER
  0
ENDSEC
  0
EOF
